Misc
C Major Scale Ver 2 (Bass tab)

here is the C major scale there are different ways to play it here's one
first position
G|------------0245--420----------------
D|-----023-----------------320---------
A|--3------------------------------3 --
E|-------------------------------------

Alternative ending after A|-3

A|-2-3 and bend the 3

Another way of playing is in second position with no open string

G|-----------245-42--------------
D|------23-5--------53-2---------
A|---35------------------53------
E|-------------------------------

again the alternative ending given above also works.

Copyrights
Author: ?
Composer: ?
Publisher: ?
More details
Language: English

Reactions

CommonCrawl [Bot]

Follow Muzikum