Misc
Acustic Solo (Guitar tab)

made by gothichild_666


E |---10-13-12-13-10-13-12-13-----|----7-10-8-10---7-10-8-10----|
B |O------------------------------|-----------------------------|
G |-------------------------------|-----------------------------|
D |-------------------------------|-----------------------------|
A |O------------------------------|-----------------------------|
E |-------------------------------|-----------------------------|

E |--5--8--7--8--5--8--7--8-------|--4--7--5--7--4--7--5--7-----|
B |-------------------------------|----------------------------O|
G |-------------------------------|-----------------------------|
D |-------------------------------|-----------------------------|
A |-------------------------------|----------------------------O|
E |-------------------------------|-----------------------------|


E |------4h7p4------------7h10p7---------7-8h10p8p7--------------|
B |----6-------6--------9--------9------------------10-9---------|
G |-s7-----------7--s10------------10--------------------10-9-7--|
D |--------------------------------------------------------------|
A |--------------------------------------------------------------|
E |--------------------------------------------------------------|


E |---------------------------------|
B |---------------------------------|
G |---------------------------------|
D |--9--7--6------------------------|
A |-----------8--7--5---------------|
E |--------------------8--7--5~~~~~-|

Copyrights
Author: ?
Composer: ?
Publisher: ?
More details
Language: English

Reactions

CommonCrawl [Bot]

Follow Muzikum