Misc
James Bond Theme Intro (Guitar tab)

Hey all.. heres a part of the james bond theme.

E---------------------------------------------------------
B---------------------------------------------------------
G---------------------------------------------------------
D---------------------------------------------------------
A---------------------------------------------------------
E--0--2-2-2--0-0-0-0---3-3-3---2-2-2----------------------

E---------------------------------------------------------
B---------------------------------------------------------
G---------------------------------------------------------
D---------------------------------------------------------
A---------------------------------------------------------
E--0--2-2-2--0-0-0-0---3-3-3---2-1-0----------------------

E---------------------------------------------------------
B---------------------------------------------------------
G---------------------------------------------------------
D--1--0---------------------------------------------------
A--------2-0-2--------------------------------------------
E---------------------------------------------------------



Mr.Rick


beigeshoe@stny.rr.com

  • rickbehr

    Submitted by

    rickbehr at Thu 24 Jul, 2003 5:04 am

  • <
Copyrights
Author: ?
Composer: ?
Publisher: ?
More details
Language: English

Reactions

CommonCrawl [Bot]

Follow Muzikum