Misc
Lord I Lift Your Name On High (Guitar chord)

song: Lord I lift your name on high.
tabbed by : sophie
k guyz this iz my 1st tab, so b easy on me. its all rite(i think) and i've added in the spiced up bitz.
enjoy this iz a kool song, if theres ne problems or nething my email is ice_a_dj@hotmail.com. or just
if u wanna email me. can sum1 tell me who this is by?

E 3-3�-5-7-8-8�-7-5-3-3�5-7-8--
A -----------------------------
D ----------------------------- (x2)
G -----------------------------
B -----------------------------
E -----------------------------

E -----------------------------
A -----------------------------
D ----------------------------- (x2)
G -----------------------------
B -----------------------------
E 3-3�-5-7-8-8�-7-5-3-3�5-7-8--

E 3-3�-5-7-8-8�-7-5-3-3�5-7-8--
A -----------------------------
D ----------------------------- (x2)
G -----------------------------
B -----------------------------
E 3-3�-5-7-8-8�-7-5-3-3�5-7-8--

1st G - Play both E strings before hitting the whole chord.
I.e. E 3-----3-----------------------
A ------3-----------------------
D ------0-----------------------
G ------0-----------------------
B ------3-----------------------
E 3-----3-----------------------
G C2 D Dsus4 D C2
Lord I lift your name on high

G C2 D C2
Lord I love to sing your praises

G C2 D Dsus4 D C2
I'm so glad you�re in my life

G C2 D C2
I'm so glad you came to save us

Chorus~

G C2 D
You came from heaven to earth


C2 G
To show the way

C2 D
From the earth to the cross

C2 G
My dept to pay

C2 D
From the cross to the grave

Em C
From the grave to the sky

D G
Lord, I lift your name on high

Low e= 3-3�-5-7-8-8�-7-5-3-3�5-7-8--
High e=3-3�-5-7-8-8�-7-5-3-3�5-7-8�-
Let the last note ring out
Dsus4�s are pull offs

Chords:
G C2 D Dsus4 Em C
E ------3------X-------X--------X-----------0---------X-----
A ------2------3-------X--------X-----------2---------3-----
D ------0------2-------0--------0-----------2---------2-----
G ------0------0-------2--------2-----------0---------0-----
B ------3------3-------3--------3-----------0---------1-----
E ------3------3-------2--------3-----------0---------0-----

Copyrights
Author: ?
Composer: ?
Publisher: ?
More details
Language: English

Reactions

CommonCrawl [Bot]

Follow Muzikum