Misc
Greasy Chip Butty (Guitar tab)

Song: Greasy Chip Butty Song - Blades Fans (Annie's Song - John Denver)
Tabbed by: Matt Memmott

If this doesnt sound right to you then try moving it around different
frets, but it is the right pattern. I haven't done the timing, but it
is easy to figure out, just listen to the song.

Its sounds wkd if you play it with lots of feel and feedback, and you
could add a bit of vibrato on the longer notes.

|--17--17--16--14--17--16--14--14--14--16--17----------|
|----------------------------------------------17------|
|--------------------------------------------------18--|
|------------------------------------------------------|
|------------------------------------------------------|
|------------------------------------------------------|

|------------------16--17--16--14--14--14--16--17--16--|
|--17--17--17--19--------------------------------------|
|------------------------------------------------------|
|------------------------------------------------------|
|------------------------------------------------------|
|------------------------------------------------------|

|--17--17--17--16--14--17--16--14--14--14--16--17----------|
|--------------------------------------------------17------|
|------------------------------------------------------18--|
|----------------------------------------------------------|
|----------------------------------------------------------|
|----------------------------------------------------------|

|--------------16--17--16--14--16--17-19--17--|
|--17--17--19---------------------------------|
|---------------------------------------------|
|---------------------------------------------|
|---------------------------------------------|
|---------------------------------------------|

Have fun!

Copyrights
Author: ?
Composer: ?
Publisher: ?
More details
Language: English

Reactions

CommonCrawl [Bot]

Follow Muzikum