Misc
Acoustic Fingerpicking Song (Guitar tab)

This is a pretty cool fingerpicking song I made up last night(or at least I think so :). Well, here it is.
Standard tuning.
c00p3o

q q q e q h q h e e q qe e e e q h q q h e e q
E---r--------0-0-----------------1--h3p1h3p1--------------3-------------
B---e--------3p1--0-----1--------3---------------3-----3--------3-------
G---s-------------------2--------2---------------0--0--0-----0----------
D---t-----2-------------------2--0---------------2--0--0--2-------------
A------0----------2-----0--0------------------3-------------------------
E-----------------0--0------------------------------3--3-----------3----


e s s s s s s s s s s s s s s s q q h q
E---r--3--------0--------0--------2--------3-----------------r--|-------
B---e-----3--------3--------3--------3--------3-----------3--e--|-------
G---s--------0--------2--------2--------2--------2--------0--s--|-------
D---t-----0-----------------0-----------------0--------2-----t--|-------
A------------------0-----------------0--------------3-----------|-------
E---------------------------------------------------------------|-------


s s s s s s s s s s s s s s s s s s s s
E---||------0-----------------0-----------------0-----------------1-----
B---||---------------0-----------------0-----------------1--------------
G---||*--------0--------0--------0--------0--------2--------2-----------
D---||*-----2--------2--------2--------2--------2--------2--------0-----
A---||---2--------2--------3--------3--------0--------0--------0--------
E---||------------------------------------------------------------------


s s s s s s s s s s s s s s s s s s s s s s
E------------------1-----------------0----------------------------------
B---------3-----------------0-----------------1-------------------------
G---2--------2--2--------------0--0--------------2--0--------------0----
D---------0--------0--------2--------2--------2--------2--------2-------
A------0--------------0--2--------------3--0--------------2--2----------
E-----------------------------------------------------------------------


q s s s q s s s q s s s q s s s q e q
E----||--|--0-----------0-----------0-----------1-----------0-----------
B----||--|--0-----------0-----------1-----------3-----------1-----1-----
G---*||--|--0--------0--0--------2--2--------2--2--------2--0-----0-----
D---*||--|--2-----2-----2-----2-----2-----0-----0-----2-----2-----------
A----||--|--2--3--------3--0--------0--0--------0--0--------3--3--------
E----||--|--0-----------------------------------------------------------


e e h e e e e e e e e e h e e e e e e e e
E------0-----------------0--1--3--2--0--3--3--------0-------------------
B------1-----------------1--3--3--3--3--3--3--0--------0----------------
G------------2--------2-----------------------------0--------------2----
D---2--------2-----2-----------------------------2--------2-----2-------
A---------0-----0-----------------------------2-----2--------2--3-------
E---------------------------------------------0-----------0-------------


e e q q e e e e e e e e e e q e q h q h q q
E---------------------0--------------------------r-----------3----------
B---0--1--1-----0--------0--------------0--1--1--e--4-----4--3----------
G---------2-----------0--------------2--------2--s--5--3--5--3----------
D---2-----2--------2--------2-----2-----2-----2--t--5--5--5--5--5-------
A---------------2-----2--------2--3--------------------5-----------3----
E------------0--0-----------0--------------------------3----------------


q h e e e q q h e e e e e e e e e e q e
E---------3--3--3-----3--r--|--------0--------------------------|-------
B---4--------------------e--|--0--------0--------------0--1--1--|--3----
G------5-----------3-----s--|--------0--------------2--------2--|-------
D---5--------------5--5--t--|-----2--------2-----2-----2-----2--|-------
A------------------5--5-----|--2-----2--------2--3--------------|--5----
E---3--------------3--3-----|--0-----------0--------------------|--3----


e e e e e e e e e q q q s s s s s s s s s
E------3-----------------------------|--r-----0-----------------0-------
B---------3--------------3--4--4-----|--e--------------0----------------
G------3--------------5--------5-----|--s--------0--------0--------0----
D---5--------5-----5-----5-----5-----|--t-----2--------2--------2-------
A------5--------5--6-----------------|-----2--------2--------3----------
E------------3--------------------3--|----------------------------------


s s s s s s s s s s s s s s s s s s s s s s
E---------------0-----------------1-----------------1-------------------
B------0-----------------1-----------------3-----------------0----------
G---------0--------2--------2--------2--------2--2--------------0--0----
D------2--------2--------2--------0--------0--------0--------2----------
A---3--------0--------0--------0--------0--------------0--2-------------
E-----------------------------------------------------------------------


s s s s s s s s s s s s s s s s s s s s s
E---0--------------------------------|-----3-----------------3----------
B------------1-----------------------|--------------3-------------------
G---------------2--0--------------0--|--------3--------3--------3-------
D---2--------2--------2--------2-----|-----5--------5--------5----------
A------3--0--------------2--2--------|--5--------5--------6--------6----
E------------------------------------|----------------------------------


s s s s s s s s s s s s s s s s s s s s s s
E------------3-----------------4-----------------4-----------------3----
B---3-----------------4-----------------6-----------------3-------------
G------3--------5--------5--------5--------5--5--------------3--3-------
D---5--------5--------5--------3--------3--------3--------5--------5----
A---------3--------3--------3--------3--------------3--5----------------
E-----------------------------------------------------------------------


s s s s s s s s s s s s s s s s s s s s s
E---------------------------------|-----5-----------------5-------------
B---------4-----------------------|--------------5-----------------5----
G------------5--3--------------3--|--------5--------5--------5----------
D---------5--------5--------5-----|-----7--------7--------7--------7----
A---6--3--------------5--5--------|--7--------7--------8--------8-------
E---------------------------------|-------------------------------------


s s s s s s s s s s s s s s s s s s s s s s
E---------5-----------------6-----------------6-----------------5-------
B------------------6-----------------8-----------------5----------------
G---5--------7--------7--------7--------2--7--------------5--5----------
D---------7--------7--------5--------5--------5--------7--------7-------
A------5--------5--------5--------5--------------5--7--------------8----
E-----------------------------------------------------------------------


s s s s s s s s s
E------------------------------|----------------------------------------
B------6-----------------------|----------------------------------------
G---------7--5--------------5--|----------------------------------------
D------7--------7--------7-----|----------------------------------------
A---5--------------7--7--------|----------------------------------------
E------------------------------|----------------------------------------

Copyrights
Author: ?
Composer: ?
Publisher: ?
More details
Language: English

Reactions

CommonCrawl [Bot]

Follow Muzikum