Misc
Ballad Of Andrew (Guitar tab)

Here It Goes....

e|----------------------------------------------
B|----------------------------------------------
G|----------------------------------------------
D|---------------------------------------------- (hold that last note)
A|--------------4-4-4-------6-6-6-7-7-----------
E|--0-0-0-6-6-7-------0-0-0-----------0-0-0-0---
There once was a boy named andrew.....

e|----3-2---0------------------------------------
B|--3-----1---3------------------------3-1-0-1---
G|---------------------------------------------0-
D|-----------------------------------------------
A|------------------------------------------------
E|-------------------------------0-0-0------------
Who sailed across the sea... And saw a mighty sea thing...

e|-------------12-----------------
B|----3-1-0-----------------------
G|--0--------2--------------------
D|--------------------------------
A|--------------------------------
E|--------------------------------
And his pants he did pee....

Copyrights
Author: ?
Composer: ?
Publisher: ?
More details
Language: English

Reactions

CommonCrawl [Bot]

Follow Muzikum