Misc
Power Chords (Guitar chord)

Power chords
by Kenneth Cunningham
Hi,
im posting this coz power chords can be very annoying by yourself,
especially if youre a begginer.
This is what you can play them as and it will sound the same most
of the time.
here it is:
A A A Bb Bb B B C C Db Db
E-------------------------------------------------------------
B--------2----------------------------------------------------
G--------2----14----------3---------4-----------5----6--------
D--7-----2----14----8-----3----9----4-----10----5----6-----11-
A--7-----0----12----8-----1----9----2-----10----3----4-----11-
E--5----------------6----------7----------8----------------9--
D Eb E E F F Gb Gb G G G G#
E--------------------------------------------------------------
B--------------------------------------------------------8-----
G--7-----8----1-----9--------10----------11--------12----7-----
D--7-----8----2-----9----3---10----4-----11---5----12----5----6
A--5-----6----2-----7----3----8----4-----9----5----10---------6
E-------------0----------1---------2----------3---------------4
G#
E-----
B-----
G--=13
D---13
A---11
E-----

Copyrights
Author: ?
Composer: ?
Publisher: ?
More details
Language: English

Reactions

CommonCrawl [Bot]

Follow Muzikum