Misc
Milk Cow Blues (Guitar tab)

This song is nothing more than a few blues riffs put together.
It\'s easy and fun to play for friends. Have at it!



---0--0--0------0--0--0--0--4--0--0--0------0--0--0--4---
---0--3--3-s-5--5--5--5--5--5--0--3--3-s-5--5--5--5--5---
---------------------------------------------------------
---------------------------------------------------------
---------------------------------------------------------
---------------------------------------------------------


---0--0--0------0--0--0--0--4-s-7--7--7--7--7--7--10--10--10--10--10--10
---0--3--3-s-5--5--5--5--5--5-------------------------------------------
------------------------------------------------------------------------
------------------------------------------------------------------------
------------------------------------------------------------------------
------------------------------------------------------------------------


----------------------------------------------------------------
--5--7--5--7b--7b--7b--5-----5--7b--7b--7b--5-------------------
--------------------------6--------------------6----------------
----------------------------------------------------------------
----------------------------------------------------------------
----------------------------------------------------------------


---------------------------------0--0-----0---------------------
---------------------------------5--5-----5---------------------
---------------------4--4--6--6--------6------------------------
--2--2--4--4-s-6--6---------------------------------------------
----------------------------------------------------------------
----------------------------------------------------------------


----------------7--7-----7------------5--5----5-----------------
----------------7--7-----7--9--7-s-5--5--5----5--7--5-----------
--4--6--7--8----------8---------------------6-------------------
----------------------------------------------------------------
----------------------------------------------------------------
----------------------------------------------------------------


-----4-------3--------2---------------0---0---------------------
------------------------------------------0---------------------
--4----4--3-----3--2-----2--0--0-h-1------1---------------------
------------------------------------------2---------------------
------------------------------------------2---------------------
------------------------------------------0---------------------

Copyrights
Author: ?
Composer: ?
Publisher: ?
More details
Language: English

Reactions

CommonCrawl [Bot]

Follow Muzikum