Kyuss
N (Guitar tab)

Band: Kyuss
Album: Welcome to sky valley, track 9
Song: N.O.
Tuning: C F Bb Eb G C low to high
i'd just like to say this is the only tab for N.O. on the net
tabbed by Dan Wadham


Intro/main riff
|------------------------|
|------------------------|
|----b11r11--------------| 4/4 SHUFFLE time
|----------911p9---------|
|---------------11-------|
|--99--------------------|

I haven't quite figured out the bridge to the next
riff yet...i'm working on it

Riff 2 (after bridge 1)

|-------------------------------|
|-------------------------------|
|-------------------------------|
|-------------------------------|
|--------7-9-7-b9r9-7-----------|
|--7-999--------------9-7-9-----|

bridge 2

|----------------------|
|----------------------|
|----------------------|
|----------------------|
|--666666666544444444--|
|--444444444322222222--|

riff 3 (rhythm)

|----------------------|
|----------------------|
|----------------------|
|--6-6666666-----------|
|--4-4444444555577755--|
|-----------333355533--|

riff 3 (lead)

|-------------------------------------------|
|-------------------------------------------|
|--/18-18181818181818-----------------------|
|--------------------17b17r171717191919p17--|
|-------------------------------------------|
|-------------------------------------------|

back to riff 1 and repeat until riff 3 when the
solo comes in...

solo:
i don't know the precise notes because josh just jams it
but its real simple, just a blues pentatonic scale with root
note on fret 9. just fiddle around, its quite easy to get it
sounding kyussy and stuff.......

chow.....dan

Copyrights
Author: ?
Composer: ?
Publisher: ?
More details
Language: English

Reactions

CommonCrawl [Bot]

Follow Muzikum