Jimmy Blanton
J B Blues (Bass tab)

#
Date: Sat, 9 May 1992 03:26 EST
From: JSCHWAR@opie.bgsu.edu
Subject: Mr. J. B. Blues

Mr. J.B. Blues
Jimmy Blanton w/ Duke Ellington

I
q.. e e e. s q q q e e e. s T q 3x
----||--12-12------------|-------------------|--------------
-r--||--------r-----9-10-|-12-10-9-----------|--------------
----||-----------10------|----------r--------|--------------
----||-------------------|-------------10-10-|--------------

II same as I
e e e. s q q q e h e
-12-12-----------|------------||----------------------------
-------r----9-10-|-12-------r-||----------------------------
---------10------|-------10---||----------------------------
-----------------|----10------||----------------------------

III
q. e e e q q q q q q e e h h. q e e e e e e e e
-0--r-4---0----|---0-----|-0-r-0-r-|-r--0-|---0---0---0-2-0|
-------------0-|-----0-4-|---------|------|-----2---2------|
---------------|-3-------|---------|------|-3--------------|
---------------|---------|---------|------|----------------|


e e e e e q e T e e e e e e e e q e q e e e
-2-3-2-0-----0-|-0-e-4-5-6-7-5-4-|-0---0-3-4-0-|------------
---------2-0---|-----------------|---4---------|------------
---------------|-----------------|-------------|------------
---------------|-----------------|-------------|------------


q q e e e e q e e e e q e e e e e e e e T
-2---------2-|---------4-r-|-r-12-12----10-10-r-12-|--------
-------0-2---|-0-2-4-r-----|---------12------------|--------
---0-2-------|-------------|-----------------------|--------
-------------|-------------|-----------------------|--------

IV
e e e e e e e e q.x h e q e e e e e e
-12-r-10-10-10-------9-||-0-3-4-r-|-5-------------|---------
---------------12-12---||---------|---5---5-7-----|---------
-----------------------||---------|-----7-----5-7-|---------
-----------------------||---------|---------------|---------


e q x q. e e e e e e e e e e e q e x e e q q. e q q T
r-0-3-4--0-6-|-r-5-3-----------|---------------|-5--8-r-0-|-
-------------|-------5-3-------|-----------5-7-|----------|-
-------------|-----------5-----|-r-3-r-5-6-----|----------|-
-------------|-------------6-3-|---------------|----------|-


q. x q e e e q. e q e e T q e q. e e T q e q e e e T
-0--3-4-7-9----|-12--15-r---4-|-4---5----6-|-6---7--5-4-0-|-
------------12-|----------7---|---7----7---|---7----------|-
---------------|--------------|------------|--------------|-
---------------|--------------|------------|--------------|-

V
e e e q. e e e e e e e e e e q q q q q q q q
-0-----0----0-|-0-0-4-5-7-4-9-r||-0-------|---------|-------
---0-4----4---|----------------||---0---0-|-4-2-----|-------
--------------|----------------||-----2---|-----4-0-|-------
--------------|----------------||---------|---------|-------


q q q q q q q q q. e e e e e e q. s s q.
---------|-----2-2-|------------4-|-1-4------2--|-----------
-0-------|---------|-0--r---0-4---|------3-4----|-----------
---4-2-0-|-4-0-----|------0-------|-------------|-----------
---------|---------|--------------|-------------|-----------


q. e e e e e T e e e e e e e q. e e e e e
------------4-5-|-5-4-5-6-7-----|------12-10------|---------
----4--4--7-----|-----------4-7-|-5--r-------12-9-|---------
-5--------------|---------------|-----------------|---------
----------------|---------------|-----------------|---------


e e e e e e e e T q e e e e e e e e q. e e e
-----------------|-------------7-|-9-11-14-14-14-14-|-------
-8-7-5-4---------|---------7-9---|------------------|-------
---------7-5-----|-----5-9-------|------------------|-------
-------------6-5-|-5-r-----------|------------------|-------


e e e e e e e e e e e e e e e e q e e e e e e
-12-11-13-11-10-12-11-9-|-7-10-9-7---------|-----2---4---6-|
------------------------|----------9-7-----|---4---5---7---|
------------------------|--------------8-7-|-5-------------|
------------------------|------------------|---------------|

VI
e e e e e e e e h h h h h q q q e e e e q h h
-7---------6-----||-----|-----|---2-4-|-5-6-7-------|-0-1-|-
---7-5-4-7---7-4-||-0-1-|-0---|-0-----|-------r-0-2-|-----|-
-----------------||-----|---4-|-------|-------------|-----|-
-----------------||-----|-----|-------|-------------|-----|-


h q. e T e q. q3 q3 q3 q3 q3 q3 q3 q3 q3 h h h q. e T
-3------|---7--5--------|-------------------|-----|--------|
------0-|-0-------7--4--|-5--7--5--4--------|-----|--------|
---4----|---------------|-------------5-----|-----|---6--5-|
--------|---------------|----------------7--|-3-4-|-6------|

VII
e q q q e T e q q q. h q q q q q q h q q
-----------|----------||---2---|-0---2---|-------|----------
---7-8---6-|-6--------||-0---4-|---2-----|-0-7-9-|----------
-5-----6---|---3-1-0--||-------|-------0-|-------|----------
-----------|----------||-------|---------|-------|----------


e e e e e e e e e e e e e e e e
-------11-12-14-12-11----|----------------------|-----------
-12-14----------------14-|-12-10-9---------7----|-----------
-------------------------|---------12-10-8---10-|-----------
-------------------------|----------------------|-----------


e e e e e e e e q e e e q e T e q q e e e T q e q. e e T
-----------------|-----------7-|-7-9-11-7-----|------------|
-------7-5-------|---r-----7---|----------9---|-----9--7---|
-8-7-5-----8-7-5-|-0---5-9-----|------------9-|-9-7------9-|
-----------------|-------------|--------------|------------|

VIII
q e q. e e T h q q q. e h h e e e e h e e e e
------------|-------|-7--7-r-||-r-0-2-4-r-|-----------|-----
-----8------|---7-9-|--------||-----------|-r---0-2-r-|-----
-9-7----6-5-|-5-----|--------||-----------|-----------|-----
------------|-------|--------||-----------|---3-------|-----


h e e e e e e e e e e e e q. e e e e e q. e h
-------4-5-|-7-r-4-----------|--------------|-----9---|-----
-r-5-7-----|-------7-5-7-5---|--------5-7-r-|-10----r-|-----
-----------|---------------7-|-3--6-7-------|---------|-----
-----------|-----------------|--------------|---------|-----


e e e e e e e e e e e e e e e e e e e e e q.
-r-12-12-7-10-10-10-r-|-12-r-10-9-7-------|--------------|--
----------------------|-------------9-8-5-|-7-5----------|--
----------------------|-------------------|-----7-5-r-5--|--
----------------------|-------------------|--------------|--


q e e e q e q. e e3 e3 e3 e3 e3 e3
-r-3-4-0---0-|-r--0-3--4--0--3--4--0--|---------------------
---------0---|------------------------|---------------------
-------------|------------------------|---------------------
-------------|------------------------|---------------------

IX
e3 e3 e3 e3 e3 e3 e3 e3 e3T e e e e e e e e e e
-3--4--0--3--4--0--3--4--0---0-r||-4-5-7-5-7-5-4-0-|-------
--------------------------------||-----------------|-------
--------------------------------||-----------------|-------
--------------------------------||-----------------|-------


e e e e e e e e e e q e e e e e e h e e
-2-0-2-3-2-0-----|---0-r------------|----9-10-10-10-|------
-------------2-1-|-0-----------9-10-|-12------------|-------
-----------------|-------10-12------|---------------|-------
-----------------|------------------|---------------|-------


e q e e q e T e q q q. e e e e e e e e q. e q e e
-9-12-12-------|---0---1--|-0-2-4-r---------|-0--4-r---2-|--
---------r---2-|-2---1----|---------0-1-2-r-|--------2---|--
-----------3---|----------|-----------------|------------|--
---------------|----------|-----------------|------------|--


e e q q q q e e e e e e e e e3 e3 e3 e3 e3 e3
-r-4-5-----|-1-------0-|------------------9-----9--11-|-----
-------1-3-|---1-r-0---|-------9-12-11-12----12-------|-----
-----------|-----------|-r--12------------------------|-----
-----------|-----------|------------------------------|-----

X
e e h. q e e e e e e q e e e e e e
-12-------||-------0-----0-|-----0-3-2-0---|----------------
----12-r--||-r---0---2-0---|---2---------2-|----------------
----------||---2-----------|-3-------------|----------------
----------||---------------|---------------|----------------


e3 e3 e3 e e e e e e e e e e e e e e
----------------------|---2-0-----------|-------------------
-0----------0-3-2-0---|-------3-2-0---0-|-------------------
----------2---------1-|-2-----------2---|-------------------
----2--3--------------|-----------------|-------------------


e3 e3 e3 e e e e e e q e e e e e e e e e e e e e e
------------0-3-2-0---|-----0-3-2-0---|-------7----9----11-|
----0--1--2---------2-|---2---------2-|-5-7-9---10---12----|
-3--------------------|-3-------------|--------------------|
----------------------|---------------|--------------------|


e e e e e3 e3 e3 e e e q. e e e e e q. e e q
-12-------------------------|--------------|---7--------|--
----------9-12--11--10--9-8-|-7----7-9-7-0-|-7----9-0-r-|--
----10-12-------------------|---7----------|------------|-
----------------------------|--------------|------------|--


e e e e e e e e q e e q q
------------8-9-10-11-|-12-----------||---------------------
-r-12-11-12-----------|----12--------||---------------------
----------------------|-------10-r---||---------------------
----------------------|------------3-||---------------------

swing eighths
a classic piano-bass duo, run out and get it!

maybe there's something perverted about putting string bass
music into tab, but hey, here it is.
This version is based on those published in Todd Coolman's
_The Bass Tradition_ and Ken Rattenbury's _Duke Ellington:
Jazz Composer_
hope ya like it.
Jeff Schwartz

oh, everything from XIII on is played arco (with the bow)
interpret as you will.
ciao.

Copyrights
Author: ?
Composer: ?
Publisher: ?
More details
Language: English

Reactions

CommonCrawl [Bot]

Follow Muzikum