Frenzal Rhomb

Frenzal Rhomb
I Love Fucking Up (Guitar tab)

Author/Artist: Frenzal Rhomb
Title: I Love Fucking Up
Album: Shut Your Mouth
Transcribed by: Luke Lundberg
Email: kane_72@hotmail.com

here is another song from shut your mouth. my aim is to tab out the whole cd. only 8 more songs to go!. for this song u have to detune all strings half a step. i also tabbed out some of the lead which is a change for me to do! i only put the chords, work out the rythem urself :-) the first 2 verses are p.m and then the song rythem changes and the rest is played open., i hope this tab makes sence to ya'll, just email me if u got a problem.

------------------------------------------------------------------------------
------------------------------------------------------------------------------
-------------------------------------------------5----------------------------
-3--4--5-------------------------------------7---5----------------------------
-3--4--5-------------------------------------7---3----------------------------
-1--2--3-------------------------------------5--------------------------------
"i liked you better you were running.." "i always marvel at decisions.."

------------------------------------------------------------------------------
------------------------------------------------------------------------------
-----5-4------7-----5----------------7--------------------5-------------------
-7---5-4---5--7--7--5-----5------------7--------7-----------5-----------------
-7---3-2---5--5--7--3-------5-----5------5--------7----3------3---------------
-5---------3-----5-----3------3--------------5------5-------------------------
"now i play the geetar but my fingers don't work.."

------------------------------------------------------------------------------
-6-------6-------6------------------------------------------------------------
---9-7-----9-4-----9-12-12-12-12-12-12----------------------------------------
------------------------------------------------------------------------------
------------------------------------------------------------------------------
------------------------------------------------------------------------------
repeat the verse. when that is done, there is a little lead part.

------------------------------------------------------------------------------
------------------------------------------------------------------------------
-5--7------5--7------5--7-------------5-----7---------------------------------
-5--7--5---5--7--5---5--7--5--4--2----5--7--7--5------------------------------
-3--5--5---3--5--5---3--5--5--4--2----3--7--5--5------------------------------
-------3---------3---------3--2--0-------5-----3------------------------------
" i can't get no satisfaction.."

------------------------------------------------------------------------------
------------------------------------------------------------------------------
-9---12---5-------------------------------------------------------------------
-9---12---5---5---------------------------------------------------------------
-7---10---3---5---------------------------------------------------------------
--------------3---------------------------------------------------------------
play this part clean and slowly strum the chords.

------------------------------------------------------------------------------
------------------------------------------------------------------------------
-12--7--5----7------5----7-9---5---7-5---5---7--------------------------------
-12--7--5--7-7-7----5--7-7-9---5-7-7-5---5-7-7-5------------------------------
-10--5--3--7-5-7----3--7-5-7---3-7-5-3---3-7-5-5------------------------------
-----------5---5-------5---------5---------5---3------------------------------
"i didn't find it that funny..."

------------------------------------------------------------------------------
------------------------------------------------------------------------------
---------------7------------------5-------------------------------------------
----5------------7------7-----------5-----------------------------------------
------5---3\5-------------7--5/3----------------------------------------------
-3-------------------5--------------------------------------------------------
the solo is pretty much this. it may be a litte bit incorrect.

------------------------------------------------------------------------------
------------------------------------------------------------------------------
-5--7------5--7------5--7----------5-----7--5----5-----7--9-----5-----7--5----
-5--7--5---5--7--5---5--7--5-4-2---5--7--7--5----5--7--7--9-----5--7--7--5----
-3--5--5---3--5--5---3--7--5-4-2---3--7--5--3----3--7--5--7-----3--7--5--3----
-------3---------3---------3-2-0------5-------------5--------------5----------
"i can't get no satisfaction.."

------------------------------------------------------------------------------
------------------------------------------------------------------------------
-5------5------5-----7--------------------------------------------------------
-5--7---5--7---5--7--7--5-----------------------------------------------------
-3--7---3--7---3--7--5--5-----------------------------------------------------
----5------5------5-----3-----------------------------------------------------
"cause i love fucking, i love fucking, i love fucking up.."

OptimusPrime

Submitted by OptimusPrime at Sun 01 Dec, 2002 9:50 am

Author: ?
Composer: ?
Publisher: ?
Language: English

Reactions

CommonCrawl [Bot]

Follow Muzikum