Frenzal Rhomb

Frenzal Rhomb
I Miss My Lung (Guitar tab)

I Miss My Lung
F R E N Z A L R H O M B
Tabbed By Aaron Bridgeman (rokken@sicness.net)

http://bogans.arecool.net

KEY:
x = dead note

MAIN FIGURE:
e|-x-x-----x-x-----x-x-----x-x-----x-x-----x-x-----x-x-----x-x-----|
B|-x-x-6-6-x-x-6-6-x-x-6-6-x-x-6-6-x-x-----x-x-----x-x-----x-x-----|
G|-x-x-7-7-x-x-7-7-x-x-7-7-x-x-7-7-x-x-6-6-x-x-6-6-x-x-6-6-x-x-6-6-|
D|-x-x-7-7-x-x-7-7-x-x-7-7-x-x-7-7-x-x-7-7-x-x-7-7-x-x-7-7-x-x-7-7-|
A|-x-x-5-5-x-x-5-5-x-x-5-5-x-x-5-5-x-x-7-7-x-x-7-7-x-x-7-7-x-x-7-7-|
E|-x-x-----x-x-----x-x-----x-x-----x-x-5-5-x-x-5-5-x-x-5-5-x-x-5-5-|

CHORUS:
e|-----------------------------------------------------------------|
B|-----------------------------------------------------------------|
G|-----------------------------------------------------------------|
D|-4-4-4-4-4-4-4-4-----------------7-7-7-7-7-7-7-7-7-7-7-7-7-7-7-7-|
A|-2-2-2-2-2-2-2-2-5-5-5-5-5-5-5-5-5-5-5-5-5-5-5-5-5-5-5-5-5-5-5-5-|
E|-----------------3-3-3-3-3-3-3-3---------------------------------|

CHORUS FILL:
e|-----------------|
B|-----------------|
G|-----------------|
D|-----------------|
A|-5-----4---------|
E|-3-0-0-2-0-0-0-0-|

BRIDGE:
e|--------------------------------------------------------|
B|--------------------------------------------------------|
G|--------------------------------------------------------|
D|--------------------------------------------------------|
A|-9---7-- back and forth -9--11- back and forth--9--8--7-|
E|-7---5-- a few times ----8--9-- a few times ----7--6--5-|
This is just the chord changes, figure out the timing yourself.

OptimusPrime

Submitted by OptimusPrime at Sun 01 Dec, 2002 9:50 am

Author: ?
Composer: ?
Publisher: ?
Language: English

Reactions

CommonCrawl [Bot]

Follow Muzikum