Focus

Focus
Sylvia (Guitar tab)

Sylvia
By Focus



E---|-13-13-x-x-x-12-12-|-10-10-x-x-x-11-11-|-8-8-x-x-x-6-6-|---6-6-----
B---|-13-13-x-x-x-13-13-|-12-12-x-x-x-11-11-|-9-9-x-x-x-8-8-|---6-6-----
G---|-14-14-x-x-x-12-12-|-12-12-x-x-x-12-12-|-8-8-x-x-x-8-8-|---7-7-----
D---|-------------------|-------------------|---------------|-----------
A---|-------------------|-------------------|---------------|-----------
E---|-------------------|-------------------|---------------|-----------


2x �
E----||-8-6-5h6p5-5-5h6-5-|-------------------|---------------|-5^--3----
B----||-------------------|-8-6-6-5-6---5h6p5-|-3-5-6-3---6-6-|---------
G---*||-------------------|-------------------|---------5-----|---------
D---*||-------------------|-------------------|---------------|---------
A----||-------------------|-------------------|---------------|---------
E----||-------------------|-------------------|---------------|---------


1 1 1 LD �
E-----3---|-6^-6-5-----|-6^-6^---5h6p5---5-|-6-6p5--------|-------||----
B---6-----|--------8-6-|-------------------|-------8-6-6^-|-6-6-6/||----
G-------5-|------------|-------------------|--------------|-------||----
D---------|------------|-------------------|--------------|-------||----
A---------|------------|-------------------|--------------|-------||----
E---------|------------|-------------------|--------------|-------||----



E---13-13-x-x-x-12-12-|-10-10-x-x-x-11-11-|-8-8-x-x-x-6-6-|---6-6-8-----
B---13-13-x-x-x-13-13-|-12-12-x-x-x-11-11-|-9-9-x-x-x-8-8-|---6-6/------
G---14-14-x-x-x-12-12-|-12-12-x-x-x-12-12-|-8-8-x-x-x-8-8-|---7-7-------
D---------------------|-------------------|---------------|-------------
A---------------------|-------------------|---------------|-------------
E---------------------|-------------------|---------------|-------------


�LD
E---||-6-5h6p5-5-5h6-5-|-------------------|---------------|----3---3---
B---||-----------------|-8-6-6-5-6---5h6p5-|-3-5-6-3---6-6-|-5^---6-----
G---||-----------------|-------------------|---------5-----|------------
D---||-----------------|-------------------|---------------|------------
A---||-----------------|-------------------|---------------|------------
E---||-----------------|-------------------|---------------|------------


1 1 1 1LD
E-----|-6^-6-5-----6^-|-6^-6^---5h6p5---5-|-6-6p5--------|-------|------
B-----|--------8-6----|-------------------|-------8-6-6^-|-6-6-6-|------
G---5-|---------------|-------------------|--------------|-------|------
D-----|---------------|-------------------|--------------|-------|------
A-----|---------------|-------------------|--------------|-------|------
E-----|---------------|-------------------|--------------|-------|------



Organ Break
E---------------|-8-8-6-5h6p5-5-5h6-5-|---------------|--/10-10-10-10---
B---------------|---------------------|-8-6-6-5-6---6-|-----------------
G---------------|---------------------|---------------|-----------------
D---------------|---------------------|---------------|-----------------
A---------------|---------------------|---------------|-----------------
E---------------|---------------------|---------------|-----------------


� LD
E---10h11p10-8-10^-------|/10-10-8-7h8p7-7-7h8p7-|------------------|---
B------------------------|-----------------------|-10-8-8-7-8---8-8-|---
G------------------------|-----------------------|------------------|---
D------------------------|-----------------------|------------------|---
A------------------------|-----------------------|------------------|---
E------------------------|-----------------------|------------------|---


� LD
E---12-12-12-12-12-12^-------10\8-|-8-------8-||-8-6-5h6p5-5-5h6-5-|----
B---------------------------------|-----------||-------------------|----
G---------------------------------|-----------||-------------------|----
D---------------------------------|-----------||-------------------|----
A---------------------------------|-----------||-------------------|----
E---------------------------------|-----------||-------------------|----


�LD 1 1
E---------------------|---------------|----3---3---|-6^-6-5-----|-6^----
B---8-6-6-5-6---5h6p5-|-3-5-6-3---6-6-|-5^---6-----|--------8-6-|-------
G---------------------|---------5-----|----------5-|------------|-------
D---------------------|---------------|------------|------------|-------
A---------------------|---------------|------------|------------|-------
E---------------------|---------------|------------|------------|-------


1 LD Organ
E---6^---5h6p5---5-|-6-6p5-----------|-------||---------10---||-10-8----
B------------------|-------8-6-6/7-7\|-6-6-6-||--------------||---------
G------------------|-----------------|-------||--------------||---------
D------------------|-----------------|-------||--------------||---------
A------------------|-----------------|-------||--------------||---------
E------------------|-----------------|-------||--------------||---------



E---7h8p7------------------|-12-12-12-12-12-12^-10-13-|-12-----12-|-----
B---------10-8-8-7-8---8-8-|--------------------------|-----------|-----
G--------------------------|--------------------------|-----------|-----
D--------------------------|--------------------------|-----------|-----
A--------------------------|--------------------------|-----------|-----
E--------------------------|--------------------------|-----------|-----




E---12-10-9h10p9-|-----------------------|/14-14-14-14-14-14^-12\10-|---
B----------------|-12-10-10-9-10---10-10-|--------------------------|---
G----------------|-----------------------|--------------------------|---
D----------------|-----------------------|--------------------------|---
A----------------|-----------------------|--------------------------|---
E----------------|-----------------------|--------------------------|---



E---10-7-------------------|-6-5-------|-------||--13-13-x-x-x-12-12----
B--------10-7--------------|-----8-6-7-|-6-6-6-||--13-13-x-x-x-13-13----
G-------------10p9p7---9-7-|-----------|-------||*-14-14-x-x-x-12-12----
D--------------------9-----|-----------|-------||*----------------------
A--------------------------|-----------|-------||-----------------------
E--------------------------|-----------|-------||-----------------------


Repeat to fade
E---|-10-10-x-x-x-11-11-|-8-8-x-x-x-6-6-|---6-6-|-----------------------
B---|-12-12-x-x-x-11-11-|-9-9-x-x-x-8-8-|---6-6-|-----------------------
G---|-12-12-x-x-x-12-12-|-8-8-x-x-x-8-8-|---7-7-|-----------------------
D---|-------------------|---------------|-------|-----------------------
A---|-------------------|---------------|-------|-----------------------
E---|-------------------|---------------|-------|-----------------------




========================================================================
== TABLATURE EXPLANATION ==
========================================================================

---------- ---------- ----t---
----5h8--- Hammeron ----(8)--- Ghost ----6--- Tap
---------- ---------- Note --------
----5p8--- Pulloff ---------- --------

---------- ---------- -----p--
----5/8--- Slide Up -----x---- Dead -----7-- Pop
---------- ---------- Note --s-----
----5\8--- Slide Down ---------- --5----- Slap

---------- ||------|| Repeat --------
----5~~~-- Vibrato ||*----*|| ---5^--- Bend
---------- ||*----*|| --------
---------- ||------|| --------

---------- ---------- --------
-4:------- Time ---------- --------
-4:------- Signature ---------- --------
---------- ---------- --------

OptimusPrime

Submitted by OptimusPrime at Sun 01 Dec, 2002 9:54 am

Author: ?
Composer: ?
Publisher: ?
Available on: Golden Oldies (2014)

Reactions

CommonCrawl [Bot]

Follow Muzikum