Flying Blind

Flying Blind
Smokescreen Ver 2 (Guitar tab)

Author/Artist: Flying Blind
Title: smokescreen
Album: push
Transcribed by: joul
Email: alejandro69@marijuana.com

That�s pretty much the whole , not all but the necesary

------------------------------------------------------------------------------
------------------------------------------------------------------------------
-------------------9-9-9-9-9-9-9-9-9-9----------------------------------------
-------------------9-9-9-9-9-9-9-9-9-9----------------------------------------
-------------------7-7-7-7-7-7-7-7-7-7----------------------------------------
-------------------7-7-7-7-7-7-7-7-7-7----------------------------------------
Have you seen my girl(all this part PM)she's the one with the...............

------------------------------------------------------------------------------
------------------------------------------------------------------------------
-6-6-6-6-6-6-6-6-6-6----------------------------------------------------------
-6-6-6-6-6-6-6-6-6-6-----------------------------7-7-7-7-7-7-7-7-7-7----------
-4-4-4-4-4-4-4-4-4-4-----------------------------7-7-7-7-7-7-7-7-7-7----------
-4-4-4-4-4-4-4-4-4-4-----------------------------5-5-5-5-5-5-5-5-5-5----------
curley hair ........ she was sitting just right over there...............

------------------------------------------------------------------------------
------------------------------------------------------------------------------
------------------------------------------------------------------------------
-------------------------9-9-9-9-9-9-9-9-9-9----------------------------------
-------------------------9-9-9-9-9-9-9-9-9-9----------------------------------
-------------------------7-7-7-7-7-7-7-7-7-7----------------------------------
now she's nowhere to be found.........REPEAT THE NEXT PART WITH 2 GTS.

------------------------------------------------------------------------------
------------------------------------------------------------------------------
------------------------------------------------------------------------------
---------------------------------9--9-9-9--9----------------------------------
---------------------------------7--7-7-7--7----------------------------------
---------------------------------7--7-7-7--7----------------------------------
She only likes me when I'm high (no more PM)she's always trying to getme

------------------------------------------------------------------------------
------------------------------------------------------------------------------
-6--6-6-6--6-6----------------------------------------------------------------
-6--6-6-6--6-6-----------------------------7--7-7-7-7-7-----------------------
-4--4-4-4--4-4-----------------------------7--7-7-7-7-7-----------------------
-4--4-4-4--4-4-----------------------------5--5-5-5-5-5-----------------------
stoned she wants to see me in the sky...............................

-----------|-|-----------------------------------------|----------------------
-----------|-|-----------------------------------------|----------------------
-----------|-|---------------------------------4-x-4-5-|----------------------
-9-9-9-9-9-|-|-11-x-11-x-9--7-x-7-x-6-4-x-4--4-4-x-4-5-|----------------------
-9-9-9-9-9-|-|-11-x-11-x-9--7-x-7-x-6-4-x-4--4-2-x-2-3-|----------------------
-7-7-7-7-7-|-|--9-x-9--x-7--5-x-5-x-4-2-x-2--2---------|----------------------
Bridge Repeat

OptimusPrime

Submitted by OptimusPrime at Sun 01 Dec, 2002 9:54 am

Author: ?
Composer: ?
Publisher: ?
Language: English

Reactions

CommonCrawl [Bot]

Follow Muzikum