Fleming And John

Fleming And John
Im Not Afraid (Bass tab)

------------------------------------------------------------------
| I'm Not Afraid |
| by: Fleming and John |
| CD: Delusions of Grandeur |
| written by: Fleming and John |
| transcribed by: mred@mailhost.net (Josh Prins) |
| copyright: (C) 1995 EMJ Blackwood Music/Oh You Are Music (BMJ) |
------------------------------------------------------------------

BASS TAB

The numbers above the tabs are the beats (in 4/4 time)

Vamp 1 (after guitar intro):

1 + 2 + 3 + 4 + 1 + 2 + 3 + 4 +
------------------------------------------
------------------------------------------
------------------------------------------
-----2-------------------------0---0------

repeat VAMP 1

Verse:

1 + 2 + 3 + 4 + 1 + 2 + 3 + 4 +
------------------------------------------
------------------------------------------
-----------02-22-2----------0-00----------
-----2-2-------------0-0---2-----4-3------

repeat VERSE 7x

Chorus A:

1 + 2 + 3 + 4 + 1 + 2 + 3 + 4 +
------------------------------------------
------------------------------------------
------------------------------------------
-----2------------------------------------

1 + 2 + 3 + 4 + 1 + 2 + 3 + 4 +
------------------------------------------
------------------------------------------
-----------------------------5------------
---------------------------------0--------

Chorus B:

1 + 2 + 3 + 4 + 1 + 2 + 3 + 4 +
------------------------------------------
-----------------------------0---2--------
------------------------------------------
-----2-2-0-02--2-0-02--2-0-2--------------

1 + 2 + 3 + 4 + 1 + 2 + 3 + 4 +
------------------------------------------
-----------------------------0------------
------------------------------------------
-----2-2-0-02--2-0-02--2-0-2-----0--------


VERSE 5x

1 + 2 + 3 + 4 + 1 + 2 + 3 + 4 +
------------------------------------------
------------------------------------------
-----------02-----------------------------
-----2-2-2--------------------------------

CHORUS A

CHORUS B

Bridge:

1 + 2 + 3 + 4 + 1 + 2 + 3 + 4 +
------------------------------------------
---------------------------4-2------------
-----------4-------2-----------2-0--------
-----2---6---0---4---2---6---------0------

1 + 2 + 3 + 4 + 1 + 2 + 3 + 4 +
------------------------------------------
-----------4------------------------------
-----2---6---------2----------------------
-------------0---4---4-4-4-4-4-4-4-4------

1 + 2 + 3 + 4 + 1 + 2 + 3 + 4 +
------------------------------------------
------------------------------------------
-----------4-------2-------4-------2------
-----2---6---0---4---2---6---0---4--------

1 + 2 + 3 + 4 + 1 + 2 + 3 + 4 + 1
-----------------------------7------------
---------------6-9---7-----7---------7----
-----4-----4-7----------------------------
------------------------------------------

VERSE

1 + 2 + 3 + 4 + 1 + 2 + 3 + 4 +
------------------------------------------
------------------------------------------
-----------02-22-2-0----------------------
-----2-2-2-----------0-0-0----------------

VERSE 2x

CHORUS A

CHORUS B (2x)

1 + 2 + 3 + 4 + 1 + 2 + 3 + 4 +
------------------------------------------
-----------------------------0---2--------
------------------------------------------
-----2-2-0-02--2-0-02--2-0-2--------------

1 + 2 + 3 + 4 + 1 + 2 + 3 + 4 +
------------------------------------------
-------------------------------2----------
-------------------------0-204--420-------
-----2-2-0-02--2-0-02--02----------20-----

CHORUS B

Josh Prins
mred@mailhost.net

OptimusPrime

Submitted by OptimusPrime at Sun 01 Dec, 2002 9:55 am

Author: ?
Composer: ?
Publisher: ?
Language: English

Reactions

CommonCrawl [Bot]

Follow Muzikum