Fernando Sor

Fernando Sor
Moderato In A Minor (Guitar tab)

Moderato in A minor - Fernando Sor

Really easy nice sounding piece. No-one should have any
trouble with this.

Make up your own fingering. 4/4 time.

e -0====--8-7-5-4--5-7--0--1---0---0-------0====---8-7-
B ---------------------------0---------3-1-------------
G -------------------------------2-1-----2-------------
D -------------------------0---------------------------
A ------0----------------------3---2-----0-------0-----
E --------------0--------------------0-----------------

e -5-3-1-0-----------------------
B ---------3-1-0-1-----------1--- Repeat this Section
G -----------------2-0-1-2-----2-
D ---0-----------2---------2-----
A -----------------------0-----0-
E -------------------0-----------

e --------0-----------------1-0---------0-0-8-7-5-3-1-0
B ----------3-1-1-0-0-----------3-3-1-1-0-1------------
G --0h2-0-0---0-0-----2p0-0-0---0-0-----1-2------------
D ----------0-2-3---------------0-2-----0---------0----
A --------3-----------------2-3-----------3-0---3------
E --------------------------------------------7--------

e -----------0---0---------
B -3-1-0---1---0-----------
G -------2-2---1---2======-
D -----1---2-----------2---
A -----------------0-3---0-
E -------------0-----------

OptimusPrime

Submitted by OptimusPrime at Sun 01 Dec, 2002 9:47 am

Author: ?
Composer: ?
Publisher: ?
Language: English

Reactions

CommonCrawl [Bot]

Follow Muzikum