Fernando Sor

Fernando Sor
Moderato In C (Guitar tab)

Moderato in C - Fernanado Sor

3/4 time

Quite easy but take time with open fingering.

i - index finger
m - middle finger
a - ring finger




e ---0---------------1----------0-----0-3-1----------0-
B -----1--1-0-1--3-----3-3-1-3------1--------3-0-1-----
G -0---------------0--------------0----------------0---
D -----------------------------------------------------
A -----------------------------------------------------
E -----------------------------------------------------
i a m i m i m i a m i m i m i m a m i m i m i a


e -------------0---------------1-----------0-----0-3-1-
B -2-3-1-0-------1-1--0-1--3-----3-3--1-3------1-------
G ---------2-0---------------0---------------0---------
D -----------------------------------------------------
A -----------------------------------------------------
E -----------------------------------------------------
m i m i m i a m i m i m i a m i m i m i m a m m


e -------0---------------------------------3-2-1-0-----
B -3-1-----3-0-1----0---3-1---------1-0------------1---
G -----0--------------0------2----2------0-----------2-
D -----------------------------0-----------------------
A ----------------3------------------------------------
E -----------------------------------------------------
i m i a m i m m i m m i i m i m i m a m i


e --------------------------0---1-0--------------------
B -0---3-1-0--------0-3---1---------3-2-3-0-----0-1-3--
G -----------0----0-----0-----0-------------0-0-------0
D ---0-------------------------------------------------
A --------------0--------------------------------------
E -----------------------------------------------------
m m m i m i m i m i m i m i m i i m i


e -----0-----1-0--------0-----------1-0----------3-1--0
B -1-3-----3-----1-3------3-1-0---------3-1--0---------
G -------0------------0---------1-2------------0-------
D -----------------------------------------------------
A ----------------------------------------------------3
E -----------------------------------------------------
i m i i m i m i m i m i m i m i m i m m i m


e --------------------
B -0-1-3---0--1-------
G -------2-0----------
D -0-2-3--------------
A ------------3-------
E --------------------
m m m i m m

OptimusPrime

Submitted by OptimusPrime at Sun 01 Dec, 2002 9:47 am

Author: ?
Composer: ?
Publisher: ?
Language: English

Reactions

CommonCrawl [Bot]

Follow Muzikum