Eraserheads

Eraserheads
Tikman (Guitar tab)

Tikman
by Eraserheads
Tabbed by Ian (Iangonzo@hotmail.com)

Intro
D# Dmaj7 G# A#
F# Am# B Bm

Verse1:
F# Am# B Bm
Hindi mapakali madama'ng hinahanap
F# Am# B Bm
Nababaliw tuwing naaalala ang init
F# Am# B Bm
Hindi malimutan kailangang muling makamit
Dm# Bm
ang tamis.. sa aking mga labi

Chorus:
F# Am# B
Halika Tikman ang langit
F# Am# B
Halika Tikman ang langit

Adlib riff1:
E|-----6--------------6h7p6--------7h9p7---10p10p10p9-7-/14-14-14p16-16/17~16/17~17/18p18-17/18~
B|---7---7--6/9~----7-------7-------------------------------------------------------------------
G|-6-------------6-------------8----------------------------------------------------------------
D|----------------------------------------------------------------------------------------------
A|----------------------------------------------------------------------------------------------
E|----------------------------------------------------------------------------------------------

E--18/16~14~--14--------------------------------------------------------------------------------
B------------14-15p14/12-11h12p11~~~-------------------7h9~7~-7p9/11~11~11~-11p9-----9----------
G------------------------------------------------------------------------------11--11-----------
D------------------------------------7/8-7/8~----9h11~9--------------------------11-------------
A---------------------------------------------9~------------------------------------------------
E-----------------------------------------------------------------------------------------------

E------9-----9-99~----------------------|
B-9h11~~9h11~~----11p9------------------|
G---------------------8h11p8------------|
D---------------------------11p8--------|
A-------------------------------9h11p9--|
E---------------------------------------|

OptimusPrime

Submitted by OptimusPrime at Sun 01 Dec, 2002 9:41 am

Author: ?
Composer: ?
Publisher: ?
Language: English

Reactions

CommonCrawl [Bot]

Follow Muzikum