Compulsion

Compulsion
Domestique Ver 2 (Bass tab)

From: ndl2@ukc.ac.uk

This is the bass tab for Domestique by Compulsion
The song is made up of parts as follows:

A) -----------------------------------------
-----------------------------------------
---------5-5-5-5-4-4-4-4-----------------
-2-2-2-2-----------------5-5-5-5-4-4-4-4-

B) -----------------------------------------
-----------------------------------------
-------------2---4-4-4-4-4-4-4-4---------
-4-3-2-2---2---4-------------------------

C) -----------------------------------------
-----------------------------------------
---------4-4-4-4-2-2-2-2-2-2-2-2---------
-2-2-2-2---------------------------------

D) -----------------------------------------
-----------------------------------------
-4-4-4-4-4-4-4-4-------------------------
-----------------------------------------

R) rest for 1 bar

The song is made up like this:

R R A A A A A A R R A A A A R B B B D D A A A A A A R B B B B

R C C C C C C A A A R 3 3 3 R 3 3 3 R 3 3 3 3
^ ^
On these bits i think the bass comes
in at the end of the bar as in part D

if you think this is wrong please email me
ndl2@ukc.ac.uk

Nick lott

OptimusPrime

Submitted by OptimusPrime at Thu 14 Aug, 2003 4:31 pm

Author: ?
Composer: ?
Publisher: ?
Language: English

Reactions

CommonCrawl [Bot]

Follow Muzikum