Compulsion

Compulsion
Basketcase (Bass tab)

From: "N.D.Lott"

This is the bass tab for Basketcase by Compulsion

VERSE
---------------------------------
---------------------------------
---------2-2-2-2---------5-5-5-5-
-0-0-0-0---------3-3-3-3---------

CHORUS
---------------------------------
---------------------------------
-5-5-5-5---------2-2-2-2---------
---------3-3-3-3---------0-0-0-0-

I'm not too sure about this so
if you think this is wrong please email me

Nick lott
(ndl2@ukc.ac.uk)

OptimusPrime

Submitted by OptimusPrime at Thu 14 Aug, 2003 4:31 pm

Author: ?
Composer: ?
Publisher: ?
Language: English

Reactions

CommonCrawl [Bot]

Follow Muzikum