Telephone
Ca Cest Vraiment Toi (Bass tab)

FTH80:G D A E ; Generated by Fast Tab, do not erase
====================
>From : ADRIAN PELLET
Artist : TELEPHONE
Bass Performance: CA C'EST VRAIMENT TOI
Comments: : ALBUM : LA TOTAL

LISTEN THE CD FOR THE TIMING.

A OLD BUT GOOD FRENCH BAND.
---
Strings: E ,A ,D ,G

====================

| w w w w w w w w w w w w w w w w w
G ------------------------------------------------------
D -----------------------4--7------------------------ VERSE
A-----------------5--5--------------4--7--------9--7-- COOL PART
E --7--0--0--4--7--------------5--5--------7--7--------
>


| w w w w w w w w w w w w w w w w w w w w w w w w w w
G ------------------------------------------------------------------------------
D ------------------------------------------------------------------------------
A ------------------------------------------------------------------------------
E ----2--2--2--2--2--2--2--2--5--5--5--5--7--7--7--7--0--0--0--0--2--2--2--2--2-

>
| w w w w w w w w w
G ---------------------------------
D ---------------------------------- REFRAIN
A ----------------------------------
E --5--5--5--5--7--7--7--7--0

>
w w w w w w w w w w w w w w w w w
-G---------------------------------------------------------------
D ---------------------------------------------------------------- CHORUS GUITAR
A-7--7--7--5--5--5--------------------7--7--7--5--5--5-- X4
E-------------------5--5--5--7--7--7------------------------

Copyrights
Author: ?
Composer: ?
Publisher: ?
More details
Language: English
Available on: Au c?ur de Téléphone - CD 1 (2015)

Reactions

CommonCrawl [Bot]

Follow Muzikum