Ten Foot Pole
A (Guitar tab)

--------------------------------------------------------------------
A.D.D. - Ten Foot Pole
--------------------------------------------------------------------

By: Karn (www.geocities.com/talentopuro)

NOTE: THIS SONG IS A LOT EASIER TO PLAY IN DROP D TUNING BUT IT
DOESN'T HAVD TO BE PLAYED THAT WAY

e-|-------------------------------------------------------------------|
B-|-------------------------------------------------------------------|
G-|-------------------------------------------------------------------|
D-|---------------------8-----------------------8---------------------|
A-|-3-3--3-3--3-3--3-3--6---3-3--3-3--3-3--3-3--6---------------------|
D-|-3-3--3-3--3-3--3-3------3-3--3-3--3-3--3-3------------------------|

e-|-------------------------------------------------------------------|
B-|-------------------------------------------------------------------|
G-|-------------------------------------------------------------------|
D-|---------------------8-----------------------8---------------------|
A-|-3-3--3-3--3-3--3-3--6---3-3--3-3--3-3--3-3--6---------------------|
D-|-3-3--3-3--3-3--3-3------3-3--3-3--3-3--3-3------------------------|

e-|-------------------------------------------------------------------|
B-|-------------------------------------------------------------------|
G-|-------------------------------------------------------------------|
D-|-8----5----3-------------------------------------------------------|
A-|-6----3----1----6----3---------------------------------------------|
D-|----------------6----3---------------------------------------------|

e-|-------------------------------------------------------------------|
B-|-------------------------------------------------------------------|
G-|-------------------------------------------------------------------|
D-|-------------------3-3-3-3-----------3-3-3-3-----------------------|
A-|-3-3-3-3--6-6-6-6--1-1-1-1--6-6-6-6--1-1-1-1-----------------------|
D-|-3-3-3-3--6-6-6-6-----------6-6-6-6--------------------------------|

e-|-------------------------------------------------------------------|
B-|-------------------------------------------------------------------|
G-|-------------------------------------------------------------------|
D-|-------------------3-3-3-3-----------3-3-3-3-----------------------|
A-|-3-3-3-3--6-6-6-6--1-1-1-1--6-6-6-6--1-1-1-1-----------------------|
D-|-3-3-3-3--6-6-6-6-----------6-6-6-6--------------------------------|

e-|-------------------------------------------------------------------|
B-|-------------------------------------------------------------------|
G-|-------------------------------------------------------------------|
D-|-------------------3-3-3-3--5-5--6-6-------------------------------|
A-|-3-3-3-3--6-6-6-6--1-1-1-1--3-3--4-4-------------------------------|
D-|-3-3-3-3--6-6-6-6--------------------------------------------------|

e-|-------------------------------------------------------------------|
B-|-------------------------------------------------------------------|
G-|-------------------------------------------------------------------|
D-|-------------------3-3-3-3--5-5--6-6-------------------------------|
A-|-3-3-3-3--6-6-6-6--1-1-1-1--3-3--4-4-------------------------------|
D-|-3-3-3-3--6-6-6-6--------------------------------------------------|

e-|-------------------------------------------------------------------|
B-|-------------------------------------------------------------------|
G-|-------------------------------------------------------------------|
D-|-------------------3-3-3-3--5-5--6-6-------------------------------|
A-|-3-3-3-3--6-6-6-6--1-1-1-1--3-3--4-4-------------------------------|
D-|-3-3-3-3--6-6-6-6--------------------------------------------------|

e-|-------------------------------------------------------------------|
B-|-------------------------------------------------------------------|
G-|-------------------------------------------------------------------|
D-|-------------------3-3-3-3--5-5--6-6-------------------------------|
A-|-3-3-3-3--6-6-6-6--1-1-1-1--3-3--4-4-------------------------------|
D-|-3-3-3-3--6-6-6-6--------------------------------------------------|

e-|-------------------------------------------------------------------|
B-|-------------------------------------------------------------------|
G-|-------------------------------------------------------------------|
D-|-8-8-8-8--5-5-5-5--3-3-3-3-----------------------------------------|
A-|-6-6-6-6--3-3-3-3--1-1-1-1--6-6-6-6--------------------------------|
D-|----------------------------6-6-6-6--------------------------------|

e-|-------------------------------------------------------------------|
B-|-------------------------------------------------------------------|
G-|-------------------------------------------------------------------|
D-|-8-8-8-8--5-5-5-5--3-3-3-3-----------------------------------------|
A-|-6-6-6-6--3-3-3-3--1-1-1-1--6-6-6-6--------------------------------|
D-|----------------------------6-6-6-6--------------------------------|

e-|-------------------------------------------------------------------|
B-|-------------------------------------------------------------------|
G-|-------------------------------------------------------------------|
D-|-8-8-8-8--5-5-5-5--3-3-3-3-----------------------------------------|
A-|-6-6-6-6--3-3-3-3--1-1-1-1--6-6-6-6--------------------------------|
D-|----------------------------6-6-6-6--------------------------------|

e-|-------------------------------------------------------------------|
B-|-------------------------------------------------------------------|
G-|-------------------------------------------------------------------|
D-|-8-8-8-8--5-5-5-5--3-3-3-3-----------------------------------------|
A-|-6-6-6-6--3-3-3-3--1-1-1-1--6-6-6-6--------------------------------|
D-|----------------------------6-6-6-6--------------------------------|

e-|-------------------------------------------------------------------|
B-|-------------------------------------------------------------------|
G-|-------------------------------------------------------------------|
D-|-------------------3-3-3-3-----------3-3-3-3-----------------------|
A-|-3-3-3-3--6-6-6-6--1-1-1-1--6-6-6-6--1-1-1-1-----------------------|
D-|-3-3-3-3--6-6-6-6-----------6-6-6-6--------------------------------|

e-|-------------------------------------------------------------------|
B-|-------------------------------------------------------------------|
G-|-------------------------------------------------------------------|
D-|-------------------3-3-3-3-----------3-3-3-3-----------------------|
A-|-3-3-3-3--6-6-6-6--1-1-1-1--6-6-6-6--1-1-1-1-----------------------|
D-|-3-3-3-3--6-6-6-6-----------6-6-6-6--------------------------------|

e-|-------------------------------------------------------------------|
B-|-------------------------------------------------------------------|
G-|-------------------------------------------------------------------|
D-|-------------------3-3-3-3--5-5--6-6-------------------------------|
A-|-3-3-3-3--6-6-6-6--1-1-1-1--3-3--4-4-------------------------------|
D-|-3-3-3-3--6-6-6-6--------------------------------------------------|

e-|-------------------------------------------------------------------|
B-|-------------------------------------------------------------------|
G-|-------------------------------------------------------------------|
D-|-------------------3-3-3-3--5-5--6-6-------------------------------|
A-|-3-3-3-3--6-6-6-6--1-1-1-1--3-3--4-4-------------------------------|
D-|-3-3-3-3--6-6-6-6--------------------------------------------------|

e-|-------------------------------------------------------------------|
B-|-------------------------------------------------------------------|
G-|-------------------------------------------------------------------|
D-|-------------------3-3-3-3--5-5--6-6-------------------------------|
A-|-3-3-3-3--6-6-6-6--1-1-1-1--3-3--4-4-------------------------------|
D-|-3-3-3-3--6-6-6-6--------------------------------------------------|

e-|-------------------------------------------------------------------|
B-|-------------------------------------------------------------------|
G-|-------------------------------------------------------------------|
D-|-------------------3-3-3-3--5-5--6-6-------------------------------|
A-|-3-3-3-3--6-6-6-6--1-1-1-1--3-3--4-4-------------------------------|
D-|-3-3-3-3--6-6-6-6--------------------------------------------------|

e-|-------------------------------------------------------------------|
B-|-------------------------------------------------------------------|
G-|-------------------------------------------------------------------|
D-|-8-8-8-8--5-5-5-5--3-3-3-3-----------------------------------------|
A-|-6-6-6-6--3-3-3-3--1-1-1-1--6-6-6-6--------------------------------|
D-|----------------------------6-6-6-6--------------------------------|

e-|-------------------------------------------------------------------|
B-|-------------------------------------------------------------------|
G-|-------------------------------------------------------------------|
D-|-8-8-8-8--5-5-5-5--3-3-3-3-----------------------------------------|
A-|-6-6-6-6--3-3-3-3--1-1-1-1--6-6-6-6--------------------------------|
D-|----------------------------6-6-6-6--------------------------------|

e-|-------------------------------------------------------------------|
B-|-------------------------------------------------------------------|
G-|-------------------------------------------------------------------|
D-|-8-8-8-8--5-5-5-5--3-3-3-3-----------------------------------------|
A-|-6-6-6-6--3-3-3-3--1-1-1-1--6-6-6-6--------------------------------|
D-|----------------------------6-6-6-6--------------------------------|

e-|-------------------------------------------------------------------|
B-|-------------------------------------------------------------------|
G-|-------------------------------------------------------------------|
D-|-8-8-8-8--5-5-5-5--3-3-3-3-----------------------------------------|
A-|-6-6-6-6--3-3-3-3--1-1-1-1--6-6-6-6--------------------------------|
D-|----------------------------6-6-6-6--------------------------------|

e-|-------------------------------------------------------------------|
B-|-------------------------------------------------------------------|
G-|-------------------------------------------------------------------|
D-|------------------------------1-1---------5/6\5--------------------|
A-|--3-3-X-X-X-X---6-6-X-X-X-X---3-3--12/3---3/4\3--------------------|
D-|--3-3-X-X-X-X---6-6-X-X-X-X--------12/3----------------------------|

e-|-------------------------------------------------------------------|
B-|-------------------------------------------------------------------|
G-|-------------------------------------------------------------------|
D-|------------------------------1-1---------5/6\5--------------------|
A-|--3-3-X-X-X-X---6-6-X-X-X-X---3-3---------3/4\3--------------------|
D-|--3-3-X-X-X-X---6-6-X-X-X-X----------------------------------------|

e-|-------------------------------------------------------------------|
B-|-------------------------------------------------------------------|
G-|-------------------------------------------------------------------|
D-|------------------------------1-1---------5/6\5--------------------|
A-|--3-3-X-X-X-X---6-6-X-X-X-X---3-3---------3/4\3--------------------|
D-|--3-3-X-X-X-X---6-6-X-X-X-X----------------------------------------|


OK I'M NOT SURE ABOUT THIS PART BUT HERE IT IS(?)

e-|-------------------------------------------------------------------|
B-|-------------------------------------------------------------------|
G-|-------------------------------------------------------------------|
D-|-----------3-3-3-3--5-5-5-5-----------3-3-3-3--5-5-5-5-------------|
A-|--3-3-3-3--1-1-1-1--3-3-3-3--3-3-3-3--1-1-1-1--5-5-5-5-------------|
D-|--3-3-3-3--------------------3-3-3-3-------------------------------|


e-|-------------------------------------------------------------------|
B-|-------------------------------------------------------------------|
G-|-------------------------------------------------------------------|
D-|-8-8-8-8--5-5-5-5--3-3-3-3-----------------------------------------|
A-|-6-6-6-6--3-3-3-3--1-1-1-1--6-6-6-6--------------------------------|
D-|----------------------------6-6-6-6--------------------------------|

e-|-------------------------------------------------------------------|
B-|-------------------------------------------------------------------|
G-|-------------------------------------------------------------------|
D-|-8-8-8-8--5-5-5-5--3-3-3-3-----------------------------------------|
A-|-6-6-6-6--3-3-3-3--1-1-1-1--6-6-6-6--------------------------------|
D-|----------------------------6-6-6-6--------------------------------|

e-|-------------------------------------------------------------------|
B-|-------------------------------------------------------------------|
G-|-------------------------------------------------------------------|
D-|-8-8-8-8--5-5-5-5--3-3-3-3-----------------------------------------|
A-|-6-6-6-6--3-3-3-3--1-1-1-1--6-6-6-6--------------------------------|
D-|----------------------------6-6-6-6--------------------------------|

e-|-------------------------------------------------------------------|
B-|-------------------------------------------------------------------|
G-|-------------------------------------------------------------------|
D-|-8-8-8-8--5-5-5-5--3-3-3-3-----------------------------------------|
A-|-6-6-6-6--3-3-3-3--1-1-1-1--6-6-6-6--------------------------------|
D-|----------------------------6-6-6-6--------------------------------|

=======================================================================

Copyrights
Author: ?
Composer: ?
Publisher: ?
More details
Language: English

Reactions

CommonCrawl [Bot]

Follow Muzikum