Probe

Probe
Above (Guitar tab)

Date: Sun, 25 Jan 1998 13:23:02 -0500
From: Allan Dynes
Subject: Changing our band listing.

Allan Dynes
http://www.ProbeRocks.com/
VSeven@aol.com;VSeven@stratos.net;Probeizus@aol.com

Above by Probe

The begining is just a simple power chord progression but picked out like
this:

e --------------------------------------------------------------
B --------------------------------------------------------------
G --------------------------------------------------------------
D -------5---------------9--------------10--------------7-------
A ----5-----5--------9------9-------10------10-------7-----7----
E -3--------------7--------------8----------------5-------------

Then the same chords are done as distorted power chords ( G-B-C-A )

During the last verse, the above picking is used with palm muting and
distortion.

Solo:

e ----10-10-10--10--------------------------------------------------------
B --------------------------10-\-8---12-12-12-13----8-8--10p8----12-12-12-
G ------------------12-12-------------------------------------------------
D ------------------------------------------------------------------------
A ------------------------------------------------------------------------
E ------------------------------------------------------------------------

e ------------------------------------------------------------------------
B 13----8-8--10p8--12-12-12-13----8-8--10p8~~~-------15-15-15-17-15~~~----
G ------------------------------------------------------------------------
D ------------------------------------------------------------------------
A ------------------------------------------------------------------------
E ------------------------------------------------------------------------

e -15-15-15-17-15----------------15-15-15-17-15---------------14---15~~~~~
B ----------------15-15-15-17-15----------------15-15-15-17---------------
G ------------------------------------------------------------------------
D ------------------------------------------------------------------------
A ------------------------------------------------------------------------
E ------------------------------------------------------------------------


Word:
Verse 1:
I see the wrold from where no one can see
Where no one can harm you or me
everything in my world is free
no one can ever take you from me
chorus 1:
the world is different from up above
there is no hurt, no pain, only love
you can be what you want to be
but all I want is you here with me
verse 2:
I always see you with tears in your eyes
it seems nowadays all you do is cry
I wish I could take away all your pain
I wish I could be with you night n day
chorus 2:
the world is different from up above
there is no hurt, no pain, only love
you can do what you want to do
but all I wand is to be with you.

Solo

Verse 3:
I see the world from where no one can see
I see no hurt, no pain, no jelousy
everything in this world is free
no one can ever break you and me
chorus 3:
the world is different from up above
there is no hurt no pain only love
you can do what you want to do
but all I want is to be with you.

OptimusPrime

Submitted by OptimusPrime at Sun 01 Dec, 2002 1:43 pm

Author: ?
Composer: ?
Publisher: ?
Language: English

Reactions

CommonCrawl [Bot]

Follow Muzikum