Overkill
F (Guitar tab)

F.U.C.T.

performed by OVERKILL

redhurley182@hotmail.com
More Metal----------------- Metal On!!!!!!!!
intro play 4x (last time)

|------------------|---|
|------------------|---|
|------------------|---|
|------------------|---|
|-7-7-7-7-7-7-7-7--|-7-|
|-5-5-5-5-5-5-5-5--|-5-|


riff 1 play 8x
|------------------------------|
|------------------------------|
|------------------------------|
|------------------------------|
|-2-4-5------------------------|
|-0-2-3-0-2-3-0-2-3-0-2-3-0-2--|
. . . . . . . . . . .


riff 1a ( guitar 2) play 4x after gtr 1 plays riff1 4x
|---------|
|---------|
|---------|
|-9-11-12-|
|-7--9-10-|
|---------|


play this 2x
|-----------------------|
|-----------------------|
|-----------------------|
|-8-7-6-x-x-x-x-x-------|
|-6-5-4-x-x-x-x-x-8-5-2-|
|-------x-x-x-x-x-6-3-0-|


riff 2 x 8
|---------------------------------|
|---------------------------------|
|---------------------------------|
|---------------------------------|
|---------------------------------|
|-0-5-6-0-3-5-0-3-5-0-5-6-0-5-6-5-|



play this once

|----------------|
|----------------|
|----------------|
|----------------|
|-8--7--5-5-5--4-|
|-6--5--3-3-3--2-|
. . .

i left out the part during the verse 'cos i couldn't figure out how the
hell it goes. if you can do it, send it in!

chorus:
this little bit 3x, then this then this 4x
|-------------------|-----------------------------|--------------|
|-------------------|-----------------------------|--------------|
|-------------------|-----------------------------|--------------|
|-------------------|-----------------------------|--------------|
|-9-9-9-9-9-9-9-9-9-|-9-9-9-9-9-9-9-9-9-7-7-7-7-7-|-7(a.h.)~~----|
|-7-7-7-7-7-7-7-7-7-|-7-7-7-7-7-7-7-7-7-5-5-5-5-5-|--------------|
(end chorus)

now this 4x
|-----------------------------|
|-----------------------------|
|-----------------------------|
|-----------------------------|
|-2-2-2-3-3-3-3-3-3-3-3-3-3-3-|
|-0-0-0-1-1-1-1-1-1-1-1-1-1-1-|
. . . . . . . . . . .


play riff 2 6x

Copyrights
Author: ?
Composer: ?
Publisher: ?
More details
Language: English

Reactions

CommonCrawl [Bot]

Follow Muzikum