Elastica

Elastica
Never Here (Bass tab)

Song: Never Here
Band: Elastica
Album: Elastica (1995)
Bassist: Annie Holland
Tabber: Holly "Indie Fish" Cruise (indie_fish@hotmail.com)

I've seen some tabs for this one but most ain't right...

Verse:
G-----------------|-----------------|-------------------------|
D-----------------|-----------------|-------------------------|
A-----------------|-----------------|-------------------------|
E-7-7-7-7-7-7-7-7-|-5-5-5-5-5-5-5-5-|-10-10-10-10-10-10-10-10-|

G-------------------------|
D-------------------------|
A-------------------------|
E-12-12-12-12-12-12-12-12-|

Chorus
G-----------------|-----------------|-----------------|-----------------|
D-----------------|-----------------|-----------------|-----------------|
A-----------------|---------------9-|-----------------|-------------7---|
E-9-9-9-9-9-9-9-9-|-9-9-9-9-9-9-9---|-5-5-5-5-5-5-5-5-|-5-5-5-5-5-5---5-|

G-----------------|-----------------|
D-----------------|-----------------|
A-9-9-9-9-9-9-9-9-|-9-9-9-9-9-9-9-9-|
E-----------------|-----------------|

End of Chorus
G-------------------------|
D-------------------------|
A-------------------------|
E-8-8-8/10-10-10/12-12-12-|


I haven't bothered to count how many times the verse part is played (this
song's first
verse is longer than most Elastica songs!). The End of Chorus is played
twice through on
the first chorus and three times on the second.
Also in the Chorus instead of playing E-5- I find it easier to play open A
string.

OptimusPrime

Submitted by OptimusPrime at Sun 01 Dec, 2002 9:44 am

Author: ?
Composer: ?
Publisher: ?
Language: English

Reactions

CommonCrawl [Bot]

Follow Muzikum