Elastica

Elastica
Connection (Bass tab)

Artist: Elastica
Song: Connection
Album: Don't know. (It's the theme from Trigger Happy TV)
Tabbed by: Maz (rivers_jr@limp.co.uk)

Chorus:
G|--------------------------------------|
D|--------------------------------------|
A|----------------------------6--5-4-4--| x2
E|-6--4-6-6-6--4-6-6-6--4-6-6-----------|

Verse:
G|------------------------------------------------|
D|------------------------------------------------|
A|--------4---------------------4-----6--5-4-4----| x2
E|-6--4-6---6-4-6--4-6-6-6--4-6---6-4-------------|

End of verse:
G|--------------------------------------------------|
D|--------------------------------------------------|
A|--------------------------------------------------| x1
E|-2----2----2----2----2--2--2--2--2-2-2-2-2-2-2-2--|

Pre chorus:
G|------------------------------------------------------------|
D|------------------------------------------------------------|
A|------------------------------------------------------------| x1
E|-5-5-5-5-5-5-5-5-5-5-5-5-5-5-5-5-6-6-6-6-6-6-6-6-6----------|

Chorus:
G|--------------------------------------|
D|--------------------------------------|
A|----------------------------6--5-4-4--| x2
E|-6--4-6-6-6--4-6-6-6--4-6-6-----------|

Verse:
G|------------------------------------------------|
D|------------------------------------------------|
A|--------4---------------------4-----6--5-4-4----| x2
E|-6--4-6---6-4-6--4-6-6-6--4-6---6-4-------------|

End of verse:
G|--------------------------------------------------|
D|--------------------------------------------------|
A|--------------------------------------------------| x1
E|-2----2----2----2----2--2--2--2--2-2-2-2-2-2-2-2--|

Pre chorus:
G|------------------------------------------------------------|
D|------------------------------------------------------------|
A|-6-6-6-6-6-6-6-6-6-6-6-6-6-6-6-6-8-8-8-8-8-8-8-8-8----------| x1
E|------------------------------------------------------------|

Chorus:
G|--------------------------------------|
D|--------------------------------------|
A|----------------------------6--5-4-4--| x1
E|-6--4-6-6-6--4-6-6-6--4-6-6-----------|

Verse:
G|------------------------------------------------|
D|------------------------------------------------|
A|--------4---------------------4-----6--5-4-4----| x1
E|-6--4-6---6-4-6--4-6-6-6--4-6---6-4-------------|

Verse:
G|---------------------------------------------------|
D|---------------------------------------------------|
A|--------4---------------------4-----6--5-4-4-------| x1
E|-6--4-6---6-4-6--4-6-6-6--4-6---6-4-----------6----|


END

I'm sure its right. Mail me if theres anything wrong. Cheers.

OptimusPrime

Submitted by OptimusPrime at Sun 01 Dec, 2002 9:44 am

Author: ?
Composer: ?
Publisher: ?
Language: English

Reactions

CommonCrawl [Bot]

Follow Muzikum