Taproot

Taproot
I (Drum tab)

Artist-Taproot
Song-I
Album-Gift
Drummer-Jarrod Montague
Tabbed by Rock Drummer (rockdrummer@nirvanafan.com)

x-hi-hat/crash hit
X-accented crash/open hi hats
s-splash
o-hit on drums/slight open hi hat
f-flam
g-ghost note (no crash when repeating)
|------2-x------| |------3-x------|
C--x--X-----------------------------------------------x---------------|
H-------x-x-x-x-x-x-o-x-x-x-x-x-x-x-o-x-x-x-x-x-x-x-o---x-x-x-x-x-x-o-|
S--o------o--o------o-----o--o------o-----o--o------o-----o--o------o-|
B-o---o--o--o----o-o--o--o--o----o-o--o--o--o----o-o--o--o--o----o-o--|

|-------2-x------|
C-------------------x-x-x-x-x-x-x-x-x-x-x-x-x-x-x-x-x-x-x-x-x-x-x-x-x-x---|
H-x-X-X-X-X-X-X-X-X-----------------------------------------------------X-|
S-----o-----o-o-ooo-----o---------o-------o---------o-------o---------o---|
B-o--o---oo---------oo-o--oo--o--o-oo-oo-o--oo--o--o-oo-oo-o--oo--o--o-oo-|

Verse
|------8-x------|
C-----------------------------------|
H-x-x-x-x-x-x-x-o-x-X-X-X-X-X-X-X-X-|
S-----o--o------o-----o-----o-o-ooo-|
B-o--o--o----o-o--o--o---oo---------|

Chorus
I hate… I love… I need…
C-x-x-x-xx--------x-x-x-xx--------x-x-x-xx--------x-x-x-x-x-x-x-x---x-x-x-x-x-x-x-x-x-|
H-----------------------------------------------------------------X-------------------|
S-----o---------------o---------------o---------------o-----o---o--------o----o---o---|
B-oo-o--oo--------oo-o--oo--------oo-o--oo--------oo-o--oo----o--o--oo-o--oo----o--oo-|

C-x-x-x-x-x-x-x-----x-x-x-x-x-x-x-x-x-x-x-x-x-x-x-x----|
H-----------------X-----------------------------------X|
S-----o-----o---f-------o-----o---o-------o---------f--|
B-oo-o--oo----o--o--oo-o--oo----o--oo-oo-o--oo--o-o--o-|

Verse
C-x-------------------------------------------------x--x--x-----------|
R------------------------------------------------------------x-x------|
H---x-x-x-x-x-x-o-x-x-x-x-x-x-x-o-x-x-x-x-x-x-x--o------------------X-|
S-----o--o------o-----o--o------o-----o--o------f-----------------f---|
B-o--o--o----o-o--o--o--o----o-o--o--o--o------o----o--o--o------o-o--|

(no crash when repeating)
|------2-x------|
C-x--------------------------------|
H---x-x-x-x-x-x-o-x-X-X-X-X-X-X-X-X|
S-----o--o------o-----o-----o-o-ooo|
B-o--o--o----o-o--o--o---oo--------|

Chorus
I hate… I love… I need…
C-x-x-x-xx--------x-x-x-xx--------x-x-x-xx--------x-x-x-x-x-x-x-----x-x-x-x-x-x-x-x-x-|
H-------------------------------------------------------------------------------------|
S-----o---------------o---------------o---------------o-----o---f-f------o----o---o---|
B-oo-o--oo--------oo-o--oo--------oo-o--oo--------oo-o--oo----o--o--oo-o--oo----o--oo-|



C-x-x-x-x-x-x-x-----x-x-x-x-x-x-x-x-x-x-x-x-x-x-x-x-----|
H-----------------X-------------------------------------|
S-----o-----o---f-------o-----o---o-------o-----o---f-f-|
B-oo-o--oo----o--o--oo-o--oo----o---o-oo-o--oo----o--o-o|

C-x-x-x-x-x-x-x-x-x-x-x-x-x-x-x-x-x-x-x-x-x-x-x-x-x-x-x-x-x-x-x---|
H---------------------------------------------------------------X-|
S-----o-------o-------o-----o---o-------o-----o-------o-----o-----|
B-oo-o--oo---o-oo-oo-o--oo----o--oo-oooo--oo---oo-oooo--oo----o---|

C-----------------x---------------x---------------x------------------|
R-x-x-x-x-x-x-x-x---x-x-x-x-x-x-x---x-x-x-x-x-x-x---x-x-x-x-x--------|
t-----o---------------o---------------o---------------oo-------ooo---|
T--------o-----------------------------------------------o-o-o----oo-|
F------------------------o-o-------------o-o-o-----------------------|
B----------------oo--------------oo--------------oo------------------|

|---------7-x--------|
C-x----x-----x---x--s---x-s------------------------|
t----o--o-o-o-o-o-o---o----------------------oooo--|
T-----o--o-o---o---o---o-------------------------oo|
s---------------------------ggggoogogggooooo-------|
B-o----o-----o---o--o---o-o------------------------|

Chorus
C-x-x-x-x-x-x-x-x-x-x-x-x-x-x-x-x-x-x-x-x-x-x-x-x-x-x-x-x-x-x-x-x----|
S-----o-------o-------o-------o-------o-------o-------o---------o-f--|
B-o-oo--oo---o-oo-oo-o--oo---o-oo-o-oo--oo---o-oo-oo-o--oo--o--o---o-|

C-x-x-x-x-x-x-x-x-x-x-x-x-x-x-x-x---x-x-x-x-x-x-x-x-x-x-x-x-x-x-x-----|
H---------------------------------X-----------------------------------|
t------------------------------------------------------------------o--|
S-----o----o--o-------o---------o-------o------o--------o----o--o-----|
F------------------------------------------------------------------o--|
B-oo-o--oo--o--oo-oo-o--oo---o---o--oo-o--oo-o---o--oo-o--oo---o-o--o-|

C-x-x-x-x-x-x-x-x-x-x-x-x-x-x-----x-x-x-x-x-x-x---x--x--s--|
H-----------------------------------------------X----------|
S-----o------o--------o------f-f------o------o-------------|
B-oo-o--oo-o---oo-oo-o--oo-o--o-o-oo-o--oo-o---o--o--o--o--|

OptimusPrime

Submitted by OptimusPrime at Thu 14 Aug, 2003 7:18 pm

Author: ?
Composer: ?
Publisher: ?
Language: English

Reactions

CommonCrawl [Bot]

Follow Muzikum