Taproot

Taproot
I (Bass tab)

I (Bassline)
As recorded by Taproot
(From the 2000 Album GIFT)

Music by Taproot
Transcribed by Nathan McCray

this is basically how it goes, there are a few different rythms but you can figure it out..
email me at iluvmybass@hotmail.com


Gtr I (E A D G) - 'Untitled'

Intro
Q=100
4/4
Wx2
|--------|
|--------|
|--------|
|--------|


Gtr I
Q Q H Q Q H Q Q H Q Q H 3x
||-------------|------------|------------|------------||
||o------------|------------|------------|-----------o||
||o----9-------|----7-------|----9-------|----7------o||
||--7-----7----|-5-----5----|-7-----7----|-5-----5----||


Pre-Verse
S S S S S S S S S S S S S S S S S S S S S S S S S S S S S S S S
|---------------------------------|----------------------------------|
|---------------------------------|----------------------------------|
|---------------------------------|----------------------------------|
|-7-7-7-7-7-7-7-7-7-7-7-7-7-7-7-7-|-5-5-5-5-5-5-5-5-5-5-5-5-5-5-5-5--|


S S S S S S S S S S S S S S S S S S S S S S S S H
|---------------------------------|----------------------|
|---------------------------------|----------------------|
|---------------------------------|----------------------|
|-7-7-7-7-7-7-7-7-7-7-7-7-7-7-7-7-|-5-5-5-5-5-5-5-5-5----|


Verse
Q Q H Q Q H Q Q H Q Q H
||-------------|------------|------------|------------||
||o------------|------------|------------|-----------o||
||o----9-------|----7-------|----9-------|----7------o||
||--7-----7----|-5-----5----|-7-----7----|-5-----5----||


Pre-Chorus
S S S S S S H +E S S S S S S H +E
|----------------------|----------------------|
|----------------------|----------------------|
|----------------------|----------------------|
|-7-7-7-7-7-7-7----(7)-|-5-5-5-5-5-5-5----(5)-|


S S S S S S H +E S S S S S S H +E
|----------------------|----------------------|
|----------------------|----------------------|
|----------------------|----------------------|
|-7-7-7-7-7-7-7----(7)-|-5-5-5-5-5-5-5----(5)-|


Chorus
S S S S S S S S S S S S S S S S S S S S S S S S S S S S S S S S
||----------------------------------|---------------------------------|
||o---------------------------------|---------------------------------|
||o---------------------------------|---------------------------------|
||--7-7-7-7-7-7-7-7-7-7-7-7-7-7-7-7-|-5-5-5-5-5-5-5-5-5-5-5-5-5-5-5-5-|


S S S S S S S S S S S S S S S S S S S S S S S S S S S S S S S S
|---------------------------------|-------------------------------------||
|---------------------------------|------------------------------------o||
|---------------------------------|------------------------------------o||
|-7-7-7-7-7-7-7-7-7-7-7-7-7-7-7-7-|-5-5-5-5-5-5-5-5-5-5-5-5-5-5-5-5-----||


Verse
Q Q H Q Q H Q Q H Q Q H
||-------------|------------|------------|------------||
||o------------|------------|------------|-----------o||
||o----9-------|----7-------|----9-------|----7------o||
||--7-----7----|-5-----5----|-7-----7----|-5-----5----||


Pre-Chorus
S S S S S S H +E S S S S S S H +E
|----------------------|----------------------|
|----------------------|----------------------|
|----------------------|----------------------|
|-7-7-7-7-7-7-7----(7)-|-5-5-5-5-5-5-5----(5)-|


S S S S S S H +E S S S S S S H +E
|----------------------|----------------------|
|----------------------|----------------------|
|----------------------|----------------------|
|-7-7-7-7-7-7-7----(7)-|-5-5-5-5-5-5-5----(5)-|


Chorus
S S S S S S S S S S S S S S S S S S S S S S S S S S S S S S S S
||----------------------------------|---------------------------------|
||o---------------------------------|---------------------------------|
||o---------------------------------|---------------------------------|
||--7-7-7-7-7-7-7-7-7-7-7-7-7-7-7-7-|-5-5-5-5-5-5-5-5-5-5-5-5-5-5-5-5-|


S S S S S S S S S S S S S S S S S S S S S S S S S S S S S S S S
|---------------------------------|-------------------------------------||
|---------------------------------|------------------------------------o||
|---------------------------------|------------------------------------o||
|-7-7-7-7-7-7-7-7-7-7-7-7-7-7-7-7-|-5-5-5-5-5-5-5-5-5-5-5-5-5-5-5-5-----||


Interlude
W W W W
||-----------|----------|----------|-------||
||o----------|----------|----------|------o||
||o----------|----------|----------|------o||
||--7--------|-5--------|-7--------|-5-----||


Chorus
S S S S S S S S S S S S S S S S S S S S S S S S S S S S S S S S
||----------------------------------|---------------------------------|
||o---------------------------------|---------------------------------|
||o---------------------------------|---------------------------------|
||--7-7-7-7-7-7-7-7-7-7-7-7-7-7-7-7-|-5-5-5-5-5-5-5-5-5-5-5-5-5-5-5-5-|


S S S S S S S S S S S S S S S S S S S S S S S S S S S S S S S S
|---------------------------------|-------------------------------------||
|---------------------------------|------------------------------------o||
|---------------------------------|------------------------------------o||
|-7-7-7-7-7-7-7-7-7-7-7-7-7-7-7-7-|-5-5-5-5-5-5-5-5-5-5-5-5-5-5-5-5-----||


Duration Legend
---------------
W - whole; H - half; Q - quarter; E - 8th; S - 16th; T - 32nd; X - 64th; a - acciaccatura
+ - note tied to previous; . - note dotted; .. - note double dotted
Uncapitalized letters represent notes that are staccato (1/2 duration)
Irregular groupings are notated above the duration line
Duration letters will always appear directly above the note/fret number it represents the
duration for. Duration letters with no fret number below them represent rests. Multi-
bar rests are notated in the form Wxn, where n is the number of bars to rest for. Low
melody durations appear below the staff

Tablature Legend
----------------
h - hammer-on
p - pull-off
b - bend
pb - pre-bend
r - bend release (if no number after the r, then release immediately)
/\ - slide into or out of (from/to "nowhere")
s - legato slide
S - shift slide
- natural harmonic
[n] - artificial harmonic
n(n) - tapped harmonic
~ - vibrato
tr - trill
T - tap
TP - trem. picking
PM - palm muting
\n/ - tremolo bar dip; n = amount to dip
\n - tremolo bar down
n/ - tremolo bar up
/n\ - tremolo bar inverted dip
= - hold bend; also acts as connecting device for hammers/pulls
- volume swell (louder/softer)
x - on rhythm slash represents muted slash
o - on rhythm slash represents single note slash

Misc Legend
-----------
| - bar
|| - double bar
||o - repeat start
o|| - repeat end
*| - double bar (ending)
: - bar (freetime)
$ - Segno
& - Coda
Tempo markers - = BPM(8/16=s8/s16), where s8 = swing 8ths, s16 = swing 16ths


***************************************************************************************
* Generated using Power Tab Editor by Brad Larsen - http://powertab.guitarnetwork.org *
***************************************************************************************

OptimusPrime

Submitted by OptimusPrime at Thu 14 Aug, 2003 7:18 pm

Author: ?
Composer: ?
Publisher: ?
Language: English

Reactions

CommonCrawl [Bot]

Follow Muzikum