Dominic Miller

Dominic Miller
Do You Want Me (Guitar tab)

Date: Tue, 23 Oct 2001 21:34:38 -0400
From: "wohe73" (by way of cathal woods)
Subject: m/miller_dominic/do_you_want_me.tab

**********************
* Do You Want Me *
* by Dominic Miller *
* Album: First Touch *
**********************

tabulature by: Marco W.
email: wohe73@hotmail.com

this is a rather easy to play but very nice sounding piece from dominic.
use reverb and delay to make it sound like on the cd.
send comments or suggestions to above email-address.

rythm guitar:

part A:
E---------2--------3p2--------2p0--------0--|---------------------------
B------0--------0----------0----------0-----|--------3--------3p2-------
G---4--------4----------4----------4--------|-----0--------0------------
D-------------------------------------------|---------------------------
A-------------------------------------------|---------------------------
E-------------------------------------------|--3--------3----------3----



E--------------------|--------------------------------------------------
B------2p0--------0--|--------3--------3p2--------2p0--------0----------
G---0----------0-----|-----0--------0----------0----------0-------------
D--------------------|---------------------------------------------2----
A--------------------|--------------------------------------------------
E-----------3--------|--0--------0----------0----------0--------2-------


repeat twice then contionue with part B
E----------------------------||-----------------------------------------
B------0-----------------0---||-----------------------------------------
G---4--------4--------4-----*||-----------------------------------------
D------------------2--------*||-----------------------------------------
A----------------------------||-----------------------------------------
E---------2-----4------------||-----------------------------------------


part B: at (01:09) replace with part B* slide down
E--------------------------------------------------------0--------------
B---2--------2-------------------------7--9--9-----------0--------------
G------------------5--6/8--9--------9-----------------9--9\-------------
D---------4--------4-------------6-----------------7--------------------
A------0--------0-------------------------------------------------------
E------------------4----------9-----------------9-----------------------



E------|----------------------------------------------------------------
B------|-----2-----x--2-----x--2--------4--4--4--4-----4--4-------------
G------|-----2-----x--2-----x--2--------6--6--6--6-----6--6/9-----------
D------|-----2-----x--2-----x--2--------4--4--4--4-----4--4-------6-----
A------|----------------------------------------------------------------
E------|--2-----x--------x--------2-----4-----------6----------9--------



E---------------------------|-------------------------------------------
B------7-----7-----7-----7--|--------2-----x--2-----x--2--------4--4----
G---9-----9-----9-----9-----|--------2-----x--2-----x--2--------6--6----
D------------7-----7-----7--|--------2-----x--2-----x--2--------4--4----
A---------------------------|-------------------------------------------
E---------------------------|--0--2-----x--------x--------2-----4-------


part B*: (01:09)
E------------------2--2--||---------------------------------------------
B---4--4-----4--4--3--3--||--2--------2-------------------------7--9----
G---6--6-----6--6--4--4--||-----------------5--6/8--9--------9----------
D---4--4-----4--4--4-----||--------4--------4-------------6-------------
A------------------2-----||-----0--------0------------------------------
E---------6--------------||-----------------4----------9----------------


slide down outro (01:55)
E---7--9--------------0-----------||------------------------------------
B---------------------0-----------||-----------0--------------0---------
G---------------9-----9\----------||--------4-----2--------------3------
D------------7--------------------||-----2-----------4-----2------------
A---------------------------------||------------------------------------
E---------9--------9--------------||--2-----------------3---------------



E------------------0--------------0--------------0----------------------
B---0--------0--------------3--------------2----------------------------
G---------------3--------------4--------4-----4--------------3--4-------
D---------2--------------2-----------0--------------------0-------------
A------------------------------------------------------4----------------
E------2--------------0-----------------------------2-------------------


This is the tab for the solo guitar:


(00:48) (00:59) (01:07)
E------||------12--14--14--------|------12--14------------------|----
B------||--12--------------------|--12----------15--12-------------|----
G------||------------------------|---------------------------------|----
D------||------------------------|---------------------------------|----
A------||------------------------|---------------------------------|----
E------||------------------------|---------------------------------|----


(01:09) (01:18)
E---4p2--4--|--4--4--4p2--4--2p0--2--2--2p0--2--2/4--------7--5--4------
B---2-------|----------------------------------------5------------------
G-----------|----------------------------------------------6--4--2------
D-----------|-------------------------------------------6---------------
A-----------|-----------------------------------------------------------
E-----------|-----------------------------------------------------------


(01:29)
E---5--|--4--4--4p2--4--2p0--2--2--2p0--2h3p2p0h2-----------------------
B------|--------------------------------------------/7--5--5------------
G---2--|------------------------------------------------------7--7------
D------|----------------------------------------------------------------
A------|----------------------------------------------------------------
E------|----------------------------------------------------------------


(01:47)
E------------------------------------------------------|--------0----
B------------------------------------------------------|--0--5-------
G---6--6--4--4--7--7--6--6--4--4--------------------------|-------------
D---------------------------------4/5--4------------------|-------------
A---------------------------------------------------------|-------------
E---------------------------------------------------------|-------------


(01:55) (02:03:43)
E---h2p0--0------------------------|--9--||--------------------------
B------------5/7--3-------------------|--12-||--------------------------
G-------------------------------------|-----||--------------------------
D-------------------------------------|-----||--------------------------
A-------------------------------------|-----||--------------------------
E-------------------------------------|-----||--------------------------




========================================================================
== TABLATURE EXPLANATION ==
========================================================================

---------- ---------- ----t---
----5h8--- Hammeron ----(8)--- Ghost ----6--- Tap
---------- ---------- Note --------
----5p8--- Pulloff ---------- --------

---------- ---------- -----p--
----5/8--- Slide Up -----x---- Dead -----7-- Pop
---------- ---------- Note --s-----
----5\8--- Slide Down ---------- --5----- Slap

---------- ||------|| Repeat --------
----5~~~-- Vibrato ||*----*|| ---5^--- Bend
---------- ||*----*|| --------
---------- ||------|| --------

---------- ------ Natural --------
-4:------- Time ---------- Harmonic on --------
-4:------- Signature ---------- fret 12 --------
---------- ---------- --------

========================================================================
== Created with BUCKET O' TAB for Windows ==
== For more info email gse@his.com ==
========================================================================

OptimusPrime

Submitted by OptimusPrime at Wed 12 Dec, 2001 10:17 pm

Author: ?
Composer: ?
Publisher: EarthBeat!
Published in: 1999
Language: English
Available on: First Touch (1997)

Reactions

CommonCrawl [Bot]

Follow Muzikum