Magic Dirt
Pace It (Guitar tab)

From: "Jan Bunker"
Subject: m/magic_dirt/pace_it.crd
Date: Sat, 10 Nov 2001 12:43:59 +1000

can't every thing be...

e|--------------------------------------
b|--------------------------------------
g|--------------------------------------
d|-111111/555555------------------------ x2
a|-111111/555555------------------------
d|-111111/555555------------------------


e|--------------------------------------
b|--------------------------------------
g|--------------------------------------
d|-111111-0000-888-5555555555-----------x1
a|-111111-0000-888-5555555555-----------
d|-111111-0000-888-5555555555-----------

pm... pm.. =20
e|--------------------------------------
b|--------------------------------------
g|--------------------------------------
d|-555-5------55-5----------------------x4
a|-555-5------55-5----------------------
d|-555-5------55-5----------------------
guitar solo

pm........
e|--------------------------------------
b|--------------------------------------
g|--------------------------------------
d|-1-----5------------------------------ x2
a|-1-----5------------------------------
d|-1-----5------------------------------

e|--------------------------------------
b|--------------------------------------
g|--------------------------------------
d|-111111/555555------------------------ x2
a|-111111/555555------------------------
d|-111111/555555------------------------

e|--------------------------------------
b|--------------------------------------
g|--------------------------------------
d|-111111-0000-888-5555555555-----------x1
a|-111111-0000-888-5555555555--...oh----
d|-111111-0000-888-5555555555-----------

e|--------------------------------------
b|--------------------------------------
g|--------------------------------------
d|-111111/333333------------------------x8
a|-111111/333333------------------------
d|-111111/333333------------------------

e|--------------------------------------
b|--------------------------------------
g|--------------------------------------
d|-111111-0000-888-5555555555-----------x2
a|-111111-0000-888-5555555555-----------
d|-111111-0000-888-5555555555-----------

e|--------------------------------------
b|--------------------------------------
g|--------------------------------------
d|-111111/555555------------------------ x2
a|-111111/555555------------------------
d|-111111/555555------------------------

e|--------------------------------------
b|--------------------------------------
g|--------------------------------------
d|-111111-0000-888-5555555555-----------x1
a|-111111-0000-888-5555555555-----------
d|-111111-0000-888-5555555555-----------

some guitar work here then
pm ..........................
e|--------------------------------------
b|--------------------------------------
g|--------------------------------------
d|-111111-0000-888-5555555555-----------x1
a|-111111-0000-888-5555555555-----------
d|-111111-0000-888-5555555555-----------

e|--------------------------------------
b|--------------------------------------
g|--------------------------------------
d|-111111-0000-888-5555555555-----------x1
a|-111111-0000-888-5555555555-pick-slide
d|-111111-0000-888-5555555555-----------

e|--------------------------------------
b|--------------------------------------
g|--------------------------------------
d|-111111-0000-888-5555555555-----------x1
a|-111111-0000-888-5555555555-----------
d|-111111-0000-888-5555555555-----------

Copyrights
Author: ?
Composer: ?
Publisher: ?
More details
Language: English

Reactions

CommonCrawl [Bot]

Follow Muzikum