Mansun

Mansun
Stripper Vicar (Guitar tab)

Date: Tue, 5 Jun 2001 07:14:28 -0400
From: AAuuddee@aol.com
Subject: m/mansun/stripper_vicar.tab

STRIPPER VICAR
BY MANSUN
FROM THE ALBUM ATTACK OF THE GREY LANTERN
1997
------------------------------------------
Tabbed by AAuuddee@aol.com


VERSE1:

Guitar1:
Eb5 C5 Eb5 C5 Ab5 F5
-----------------------------
-----------------------------
-----------------------------
--13---10---13---10---6---3--
--13---10---13---10---6---3--
--11---8----11---8----4---1--

Guitar2:
--10------------------
-----11--------11-----
--------12--12----12--repeat
----------------------
----------------------
----------------------


VERSE2:same as verse1 but there's also a guitar3
just before the C5 and the F5:
------------
--15h16p15--
------------repeat
------------
------------
------------


BRIDGE:

Guitar1: Ab5 G5 C5
------------------------------------------
------------------------------------------
------0------0------0------0--------------
----2------2------2------2----6---5---10--
--3------2------0-------------6---5---10--
-----------------------3------4---3---8---

Ab5 G5
--------------------------------------
--------------------------------------
------0------0------0------0----------
----2------2------2------2----6---5---
--3------2------0-------------6---5---
-----------------------3------4---3---

Guitar2:just after the C5
-------------------
--10--10--10--10~--
-------------------
-------------------
-------------------
-------------------


CHORUS:

Guitar1:
C5 F5 C5 F5 G5 Ab5
-------------------------
-------------------------
--5-------5--------------
--5---3---5---3---5---6--
--3---3---3---3---5---6--
------1-------1---3---4--

Guitar2:
--10------------------
-----11--------11-----
--------12--12----12--repeat
----------------------
----------------------
----------------------

Guitar3:just before the F5
------------
--15h16p15--
------------repeat
------------
------------
------------


VERSE3: same as the others + guitar3:

Eb Cm
--11---8-------------------------
--11---8-------15h16p15(repeat)--
--12---8---x2--------------------
--13---10------------------------
--13---10------------------------
--11---8-------------------------


BRIDGE


CHORUS


BRIDGE2:

Guitar1:
C5 F5 G5 Ab5
------------------------
------------------------
--5---------------------
--5---3--repeat--5---6--
--3---3----------5---6--
------1----------3---4--

Guitar2:
-----------------------------------------------------------------------
-------------16(repeat)--------------------16(repeat)--14s16--16(repeat)
--14(repeat)-------------12s14--14(repeat)-----------------------------
-----------------------------------------------------------------------
-----------------------------------------------------------------------
-----------------------------------------------------------------------


CHORUS:repeated several times


END ON C5


ENJOY!!!
To see a list of my tabs,go to my website:
www.multimania.com/aauuddee

OptimusPrime

Submitted by OptimusPrime at Tue 18 Dec, 2001 1:06 pm

Author: ?
Composer: ?
Publisher: ?
Language: English

Reactions

CommonCrawl [Bot]

Follow Muzikum