French Dudes
R I P Zone (Guitar chord)

From: "louis d"
Subject: f/french_dudes/r_i_p_zone.crd
Date: Thu, 15 Nov 2001 22:10:16 +0000


artist : french dudes
song : R.I.P. Zone
tabber : Luis Is and Julio (lllouis@hotmail.com)
(julien_payette_tessier@hotmail.com)

Weezer rules and french dudes too.

first part of the verse
E |--------------------|
B |--------------------|
G |--------------------|
D |--------------------|
A |-4-------7------ ---|
E |---4-5------7-------|

Second part

E |-4--4--5----7----7---------|
B |-4--4--5----7----7---------|
G |-6--4--5----9----7---------|
D |-6--6--7----9----9---------|
A |-4--6--7----7----9------|
E |----4--5---------7-------|

Chorus

E |--------------------|
B |--------------------|
G |-9---7---5---5------|
D |-9---7---5---7------|
A |-7---5---3---7------|
E |-------------5------|

Copyrights
Author: ?
Composer: ?
Publisher: ?
More details
Language: English

Reactions

CommonCrawl [Bot]

Follow Muzikum