Fugazi

Fugazi
Promises (Bass tab)

artist: fugazi
song: promises

tabbed by Badfrancis@aol.com

Intro -
G| -----------------|-----------------|
D| -----------------|-----------------|
A| -----------------|-----------5-----|
E| ---7-7-7-2-2-2-2-|-5-5-5-5-5---5---|
Play this part times, then play...

G| -----------------|---------------------|
D| -----------------|-------------2---2h4-|
A| -----------------|-----------4---4-----|
E| ---7-7-7-2-2-2-2-|-5-5-5-5-5-----------|

Verse and chorus -
G| -----------------|-----------------------|
D| -4-4-4-4-4-4-4-4-|-4-4-----------2---2h4-|
A| -----------------|-----2-2-2-2-4---4-----|
E| -----------------|-----------------------|

Interlude -
G| -----------------|-----------------|
D| -----------------|-----------------|
A| -----------------|-----------5-----|
E| ---7-7-7-2-2-2-2-|-5-5-5-5-5---5---|
Play this part 8 times, then play...

G| -----------------|---------------------|
D| -----------------|-------------2---2h4-|
A| -----------------|-----------4---4-----|
E| ---7-7-7-2-2-2-2-|-5-5-5-5-5-----------|

Double-time -
G| -------------------------|
D| -4-----2----4s6s4----2---|
A| -----4---4---------4---4-|
E| -------------------------|
Play this part four times, then play...

G| -----------------|-----------------------|
D| -4-4-4-4-4-4-4-4-|-4-4-----------2---2h4-|
A| -----------------|-----2-2-2-2-4---4-----|
E| -----------------|-----------------------|
Play this part 15 times, then play...

Outro -
G| -----------------|---------------------||
D| -4-4-4-4-4-4-4-4-|-4-4-----------2---4-||
A| -----------------|-----2-2-2-2-4---4---||
E| -----------------|---------------------||

OptimusPrime

Submitted by OptimusPrime at Sun 01 Dec, 2002 9:49 am

Author: ?
Composer: ?
Publisher: ?
Language: English

Reactions

CommonCrawl [Bot]

Follow Muzikum