Fugazi

Fugazi
Suggestion (Bass tab)

artist: fugazi
song: suggestion

tabbed by Badfrancis@aol.com

Intro - (guitar)
G| ------------------------|---------------5s7-7-7--|
D| ------------------------|---------------3s5-5-5--|
A| ------------------------|------------------------|
E| ------------------------|------------------------|

G| ---------------5s7-7-7--|---------------5s7-7-7--|
D| -----7--5--7---3s5-5-5--|-----7--5--7---3s5-5-5--|
A| ------------------------|------------------------|
E| -5-5--------------------|-5-5--------------------|

First Verse - Play this part 7 times
G| -----7--5--7---5s7-7-7--|-----7--5--7---5s7-7-7--|
D| ---------------3s5-5-5--|---------------3s5-5-5--|
A| -5-5--------------------|-5-5--------------------|
E| ------------------------|------------------------|

G| ---------------5s7-7-7--|---------------5s7-7-7--|
D| -----7--5--7---3s5-5-5--|-----7--5--7---3s5-5-5--|
A| ------------------------|------------------------|
E| -5-5--------------------|-5-5--------------------|

Chorus - Play this part 4 times
G| ---------|---------|---------|---------|
D| ---------|---------|---------|---------|
A| -5-5-3-0-|-0-0-0-0-|---------|---------|
E| ---------|---------|-0-0-0-3-|-3-3-3-3-|

Second verse - Play the verse riff 7 times

Chorus - Play chorus riff 4 times

Outro -
G| ---------|---------|---------|---------|
D| ---------|---------|---------|---------|
A| -5-5-3-0-|---------|---------|---------|
E| ---------|---------|-0-0-0-3-|---------|
Play this part 15 times, then play...

G| ---------|---------|-----||
D| ---------|---------|-----||
A| -5-5-3-0-|---------|-----||
E| ---------|---------|-0-0-||
GUILTY!!!!

OptimusPrime

Submitted by OptimusPrime at Sun 01 Dec, 2002 9:49 am

Author: ?
Composer: ?
Publisher: ?
Language: English

Reactions

CommonCrawl [Bot]

Follow Muzikum