Phaze
Q- Ver 5 (Bass tab)

Song:Q5

Artist:Phaze

Album:Bass-Ment

Tabber:T4-TURBO

Riff 1:
g:------------------------------------------|
d:--2---3----2-------2---3h5p3p2-3-0---2----|
a:3---3----3---3---3---3-------------3---3--|
e:---------------1-------------------------1|
b:------------------------------------------|


Riff 2:
g:-----------------------------------|
d:-----------------------------------|
a:-----------------------------------|
e:--0---1-----0---1h3p1p0-------0---1|
b:1---1-----1---1---------3-0-1---1--|



Enjoy yall!!!!!

Copyrights
Author: ?
Composer: ?
Publisher: ?
More details
Language: English

Reactions

CommonCrawl [Bot]

Follow Muzikum