Fuel

Fuel
Innocent (Bass tab)

Artist: Fuel
Song: Innocent
Album: Something Like Human
Tabbed By: Tom Vartuli vartuli14@hotmail.com

Guitar plays for a few measures.

Intro (* hold)
G: --------------------------------------------------------------------
D: --------------------------------------------------------------------
A: ----3---2---0-------3---2---0---------3---2--0--0--0---3*-----------
E: -----------------3----------------3---------------------------------
Then . . . x2
G: --------------------------------------------------------------------
D: ---------- 3h5-2----------------------------------------------------
A: -----7*-----------5*--------3*-------------------------------------
E: --------------------------------------------------------------------

Verse 1 (drums come in) x2
G: --------------------------------------------------------------------
D: ---------------3h5 2---------------------------- 3h5 2-----------
A: -----7 7 7 ----------------5--5----3- -3\7 7 7-------------5-5-3-3\-
E: --------------------------------------------------------------------

Chorus x3 Chorus Ending
G: ------------------------------|------------------------------------
D: ------------------------------|-------------------------------------
A: ---3-3 3-3-3--0-0-0-----------|3-3-3-3--0-0-0-0--3-3-3-3-0-0-0- 3*--
E: --------------------3-3 3 3 3-|-------------------------------------

Pre-Interlude
G: --------------------------------------------------------------------
D: --------------------------------------------------------------------
A: --------------------------------------------------------------------
E: --0-0-0-0-0-0-0-0-0-0-----------------------------------------------

Interlude
G: --------------------------------------------------------------
D: --------------------------------------------------------------
A: -----------7 7 7 7-5 5 5 5 5-----------7 7 7 7 -5 5 5 5-------
E: -0--3-5/6---------------------0 3-5/6------------------------

G: -------------------------------------------------------------------
D: ----------------------------------7 7 7 7 -5 5 55-----55555555555---
A: ---------7-7-7-7-5-5-5-5--------------------------------------------
E: -0 3 5/6----------------- 0-3-5/6-----------------------------------

Verse 2 (verse 1) x2
Chorus x3
Chorus Ending x4

Ending (softly, wait a few "innocents" then come in softly) fade out
G: ---7*-------9*----------9*-------------------77---\9----------------
D: -----------------------------------7 7--9---------------------------
A: --------------------------------------------------------------------
E: --------------------------------------------------------------------

OptimusPrime

Submitted by OptimusPrime at Sun 01 Dec, 2002 9:49 am

Author: ?
Composer: ?
Publisher: ?
Language: English

Reactions

CommonCrawl [Bot]

Follow Muzikum