Fuel

Fuel
Bad Day Ver 3 (Guitar tab)

Artist:Fuel
Song:Bad Day

br=Bend&Release
h=Hammer-on


Intro,verse:

e/-----0---0---0---0---0---0---0---0---0---0---0---0---0------/
B/-----2---2---2---0---0---0---0h2-2---2---2---2---2---2------/
G/-----2---2---2---2---2---2---2---2---2---2---2---2---2------/
D/-----2---2---2---2---2---2---2---2---2---2---2---2---2------/
A/---0-----0---0---0---0---0---0---0---0---0---0---0---0------/
E/------------------------------------------------------------/

e/-----0---0---0---0---0---0---0---0---0---0---0---0---0------/
B/-----2---2---2---0---0---0---0h2-2---2---2---2---2---2------/
G/-----2---2---2---2---2---2---2---2---2---2---2---2---2------/
D/-----2---2---2---2---2---2---2---2---2---2---2---2---2------/
A/---------x---x---x---x---x---x---x---x---x---x---x---x------/
E/---2-----2---2---2---2---2---2---2---2---2---2---2---2------/

e/---2---2---2---2---2---2---2---1---1---1---1---1---1---1----/
B/---3---3---3---3---3---3---3---3---3---3---3---3---3---3----/
G/---2---2---2---2---2---2---2---2---2---2---2---2---2---2----/
D/---0---0---0---0---0---0---0---0---0---0---0---0---0---0----/
A/------------------------------------------------------------/
E/------------------------------------------------------------/

e/-----0---0---0---0---0---0---0---0---0---0---0---0---0------/
B/-----2---2---2---0---0---0---0h2-2---2---2---2---2---2------/
G/-----2---2---2---2---2---2---2---2---2---2---2---2---2------/
D/-----2---2---2---2---2---2---2---2---2---2---2---2---2------/
A/---0-----0---0---0---0---0---0---0---0---0---0---0---0------/
E/------------------------------------------------------------/

Chorus:

e/---2---2---2---2---0---0---0---0---2---2---2---2---2---2---2---2
B/---3---3---3---3---0---0---0---0---2---2---2---2---2---2---2---2
G/---2---2---2---2---1---1---1---1---2---2---2---2---2---2---2---2
D/---0---0---0---0---2---2---2---2---4---4---4---4---4---4---4---4
A/-------------------2---2---2---2---4---4---4---4---4---4---4---4
E/-------------------0---0---0---0---2---2---2---2---2---2---2---2

Solo:

e/------------------------------------
B/------------------------------------
G/-------6----------------------------
D/---6h7--7-6br-----------------------
A/--------------7---------------------
E/------------------------------------

the rhythm played in the solo is the verse

That's basically it!
I know there are some things missing but nobody's perfect
unless they have the actual tab in a Guitar World magazine.

Well, I know this is right because i played it while i listened
to the song. C-ya

OptimusPrime

Submitted by OptimusPrime at Sun 01 Dec, 2002 9:49 am

Author: ?
Composer: ?
Publisher: ?
Language: English

Reactions

CommonCrawl [Bot]

Follow Muzikum