Fuel

Fuel
Bad Day Ver 5 (Guitar tab)

Name of Song: Bad Day
Name of Artist: Fuel
Tabbed by: Allison
Email: guitarchic514@yahoo.com

I didn't bother with the rythm...but I think I got the number of times you play each chord right. I added some of the lyrics to help you figure out what part of the song you were playing. Just listen to the CD and you can figure it out. Enjoy!
Had a bad day again...
e---0---0-0-0-0-0-0-0-0------0---0-0-0-0-0-0-0--0---0-0-0-0-0-0-0-0--
B---0h2-2-2-0-0-0-0-0-0h2----0h2-2-2-0-0-0-0-0--0h2-2-2-0-0-0-0-0-0--
G---2---2-2-2-2-2-2-2-2------2---2-2-2-2-2-2-2--2---2-2-2-2-2-2-2-2--
D---2---2-2-2-2-2-2-2-2------2---2-2-2-2-2-2-2--2---2-2-2-2-2-2-2-2--
A---0---0-0-0-0-0-0-0-0------0---0-0-0-0-0-0-0--0---0-0-0-0-0-0-0-0--
E--------------------------------------------------------------------
She left a note....
e---0---0-0-0-0-0-0-0---0---0-0-0-0-0-0-0
B---0h2-2-2-2-0-0-0-0---0h2-2-2-0-0-0-0-3
G---2---2-2-2-2-2-2-2---2---2-2-2-2-2-2--
D---2---2-2-2-2-2-2-2---2---2-2-2-2-2-2--
A---X---X-X-X-X-X-X-X---X---X-X-X-X-X-X--
E---2---2-2-2-2-2-2-2---2---2-2-2-2-2-2--
I had a bad day again...
e---2-2-2-2-2-2-2-2-2---0-1-1---1-1-1-1-1-1-1-0---0---0-0-0-0-0-0-0-0
B---3-3-3-3-3-3-3-3-3-X-0-2-2-X-2-0-0-0-0-0-0-0---0h2-2-2-0-0-0-0-0-0h2
G---2-2-2-2-2-2-2-2-2-X---2-2-X-2-2-2-2-2-2-2-----2---2-2-2-2-2-2-2-2
D---0-0-0-0-0-0-0-0-0-X---0-0---0-0-0-0-0-0-0-----2---2-2-2-2-2-2-2-2
A-------------------------------------------------0---0-0-0-0-0-0-0-0
E--------------------------------------------------------------------
She spilled her... Smeared...
e---0---0-0-0-0-0-0-0-0---0---0-0-0-0-0-0-0-0-0-0-0-0-0-0-0-0
B---0h2-2-2-2-0-0-0-0-0---0h2-2-2-2-0-0-0-0-0-2-2-2-0-0-0-0-0
G---2---2-2-2-2-2-2-2-2---2---2-2-2-2-2-2-2-2-2-2-2-2-2-2-2-2
D---2---2-2-2-2-2-2-2-2---2---2-2-2-2-2-2-2-2-2-2-2-2-2-2-2-2
A---0---0-0-0-0-0-0-0-0---0---0-0-0-0-0-0-0-0-X-X-X-X-X-X-X-X
E---------------------------------------------2-2-2-2-2-2-2-2
Slammed.... sorry.... I had a bad day again...
e---0---0-0-0-0-0-0-----2-2-2-2-2-2-2-2---0-1-1-----1-1-1-1---0
B---0h2-2-2-0-0-0-0-----3-3-3-3-3-3-3-3-X-0-2-2-X-0-0-0-0-0-X-0
G---2---2-2-2-2-2-2-X-0-2-2-2-2-2-2-2-2-X---2-2-X---2-2-2-2-X--
D---2---2-2-2-2-2-2-X-0-0-0-0-0-0-0-0-0-X---0-0-X---0-0-0-0-X--
A---X---X-X-X-X-X-X--------------------------------------------
E---2---2-2-2-2-2-2--------------------------------------------
And she swears....
e---0---0-0-0-0-0-0-0-0---0---0-0-0-0-0-0-0--
B---0h2-2-2-2-0-0-0-0-0---0h2-2-2-2-2-2-2-2--
G---2---2-2-2-2-2-2-2-2---2---2-2-2-2-2-2-2-0
D---2---2-2-2-2-2-2-2-2---2---2-2-2-2-2-2-2-0
A---0---0-0-0-2-2-2-2-2---0---0-0-0-0-0-0-0--
E--------------------------------------------
I hear her... She puts me up...
e---2-2-2---0--2-2-2---0-0-0-0-0-2-2-2-----0-0-2-2---0-0-0-0-2-2-2--
B---3-3-3---0--2-2-2-X-0-0-0-0-0-3-3-3-X-X-0-0-2-2-X-0-0-0-0-3-3-3-3
G---2-2-2-X-1--2-2-2-X---2-1-1-1-2-2-2-X-X-1---2-2-X-1-2-1-1-2-2-2-1
D---0-0-0-X-2--2-2-2-X---2-2-2-2-0-0-0-X-X-2---2-2-X-2-2-2-2-0-0-0-0
A---0-0-0---2--4-4-4-----2-2-2-2-0-0-0-----2---4-4---2-2-2-2-0-0-0--
E-----------0--2-2-2-----0-0-0-0-----------0---2-2---0-0-0-0--------
And had a bad day again...
e---2-2-2-2-2-2-2-2-2-2---2---2-2-2-2-2-2-2---
B---3-3-3-3-2-2-2-2-2-2---2h3-3-3-3-3-3-3-3---
G---4-4-4-4-4-4-4-4-4-4---4---4-4-4-4-4-4-4---
D---4-4-4-4-4-4-4-4-4-4---4---4-4-4-4-4-4-4---
A---2-2-2-2-2-2-2-2-2-2---2---2-2-2-2-2-2-2---
E---------------------------------------------
She said I would not....
e---0---0-0-0-0-0-0-0-0---0---0-0-0-0-0-0-0---0---0-0-0-0-0-0-0
B---0h2-2-2-0-0-0-0-0-0---0h2-2-2-2-0-0-0-0---0h2-2-2-0-0-0-0-3
G---2---2-2-2-2-2-2-2-2---2---2-2-2-2-2-2-2---2---2-2-2-2-2-2--
D---2---2-2-2-2-2-2-2-2---2---2-2-2-2-2-2-2---2---2-2-2-2-2-2--
A---0---0-0-0-0-0-0-0-0---X---X-X-X-X-X-X-X---X---X-X-X-X-X-X--
E-------------------------2---2-2-2-2-2-2-2---2---2-2-2-2-2-2--
I had...
e---2-2-2-2-2-2-2-2---0-1-1---1-1-1-1-1-1-1-0---0---0-0-0-0-0-0-0
B---3-3-3-3-3-3-3-3-X-0-2-2-X-2-0-0-0-0-0-0-0---0h2-2-2-0-0-0-0-0
G---2-2-2-2-2-2-2-2-X---2-2-X-2-2-2-2-2-2-2-----2---2-2-2-2-2-2-2
D---0-0-0-0-0-0-0-0-X---0-0---0-0-0-0-0-0-0-----2---2-2-2-2-2-2-2
A-----------------------------------------------0---0-0-0-0-0-0-0
E----------------------------------------------------------------

Guitar solo:
e----------------------------------------------------------------
B---------2-------------------------2---------------------------2
G---1--2-----2--1h2--1--------1--2-----2--1h2--1h2--1~----1--2---
D-----------------------2~---------------------------------------
A----------------------------------------------------------------
E----------------------------------------------------------------
And she swears...
e-------------------------------------------0~
B----------------------------------2----------
G---2--1h2--1----------------1--2-----2--1----
D--------------2--2h3--2----------------------
A---------------------------------------------
E---------------------------------------------
there's nothing wrong... She puts me up..
e---2-2-2---0-2-2-2---0-0-0-0-0-2-2-2-----0-0-2-2---0-0-0-0-2-2-2--
B---3-3-3---0-2-2-2-X-0-0-0-0-0-3-3-3-X-X-0-0-2-2-X-0-0-0-0-3-3-3-3
G---2-2-2-X-1-2-2-2-X---2-1-1-1-2-2-2-X-X-1---2-2-X-1-2-1-1-2-2-2-1
D---0-0-0-X-2-2-2-2-X---2-2-2-2-0-0-0-X-X-2---4-4-X-2-2-2-2-0-0-0-0
A---0-0-0---2-4-4-4-----2-2-2-2-0-0-0-----2---4-4---2-2-2-2-0-0-0--
E-----------0-2-2-2-----------------------0---2-2---0-0-0-0--------
And had a bad day again...
e---2-2-2-2-2-2-2-2-2-2---2---2-2-2-2-2-2-2----
B---3-3-3-3-2-2-2-2-2-2---2h3-3-3-3-3-3-3-3-X-X
G---4-4-4-4-4-4-4-4-4-4---4---4-4-4-4-4-4-4-X-X
D---4-4-4-4-4-4-4-4-4-4---4---4-4-4-4-4-4-4-X-X
A---2-2-2-2-2-2-2-2-2-2---2---2-2-2-2-2-2-2----
E----------------------------------------------
She said I would not... She left a note....
e---0---0-0-0-0-0-0-0-0---0---0-0-0-0-0-0-0---0---0-0-0-0-0-0-0
B---0h2-2-2-0-0-0-0-0-0---0h2-2-2-2-0-0-0-0---0h2-2-2-0-0-0-0-3
G---2---2-2-2-2-2-2-2-2---2---2-2-2-2-2-2-2---2---2-2-2-2-2-2--
D---2---2-2-2-2-2-2-2-2---2---2-2-2-2-2-2-2---2---2-2-2-2-2-2--
A---0---0-0-0-0-0-0-0-0---X---X-X-X-X-X-X-X---X---X-X-X-X-X-X--
E-------------------------2---2-2-2-2-2-2-2---2---2-2-2-2-2-2--
I had a bad day again...She left a note...
e---2-2-2-2-2-2-2-2---0-1-1-1-1-1-1-1-1-0---0---0-0-0-0-0-0-0
B---3-3-3-3-3-3-3-3-X-0-2-2-0-0-0-0-0-0-0---0h2-2-2-0-0-0-0-0
G---2-2-2-2-2-2-2-2-X---2-2-2-2-2-2-2-2-----2---2-2-2-2-2-2-2
D---0-0-0-0-0-0-0-0-X---0-0-0-0-0-0-0-0-----2---2-2-2-2-2-2-2
A-------------------------------------------0---0-0-0-0-0-0-0
E------------------------------------------------------------
Sorry I.... I had a bad day...
e---2---------------2/5-----
B---3---------------3/6-----
G---4---------------4/7-----
D---4---------------4/7-----
A---2---------------2/5-----
E---------------------------

Outro:
e-----------------------------------------------------------------
B---------2----------------------------2--------------------------
G---1--2-----2--1h2--1-----------1--2-----2--1h2--1---------------
D-----------------------2--2-------------------------2--2--2--2--2
A-----------------------------------------------------------------
E-----------------------------------------------------------------

e--------------------------------------0~~
B---------2----------------------------2~~
G---1--2-----2--1h2--1-----------------2~~
D-----------------------2--2h3--2------2~~
A--------------------------------------0~~

OptimusPrime

Submitted by OptimusPrime at Sun 01 Dec, 2002 9:49 am

Author: ?
Composer: ?
Publisher: ?
Language: English

Reactions

CommonCrawl [Bot]

Follow Muzikum