Fuel

Fuel
Last Time Ver 2 (Guitar tab)

Last Time
Fuel
Something Like Human

Drop-D tuning
pm-palm mute
nh-natural harmonic
\#-slide down
/#-slide up
~-vibrato
^-hammer on
/-repeat chord
X-mute

Intro
|------------------------------------|
|------------------------------------|
|-11--------------11-----------------|
|-9---------------0------------------|
|-9--/-/-/-/-/-/--0--/-/-/-/-/-/-----|
|-9---------------0------------------|

1st Verse a) b)
|---------------| --------------------|
|---------------| --------------------|
|-11-----11-----| --------------------|
|-9------0------| --\2----------------|
|-9------0------| --\2--/-/-/-/-/-/---|
|-9------0------| --\2----------------|


Chorus a) b)
|------------------------------------| ---------------------------|
|------------------------------------| ---------------------------|
|------------------------------------| ---------------------------|
|-0^4-4--0^4-4--0--4-4--0-4-0-2-2----| ---------------------0/----|
|-0^4-4--0^4-4--0--4-4--0-4-0-2-2----| -------4^5~~~--4-----0/----|
|-0^4-4--0^4-4--0--4-4--0-4-0-2-2----| -0-4-5-----------5-4-0/----|
pm nh nh

2nd Verse
|--------------------|
|--------------------|
|-11--11---11--11----|
|-9--------0---------|
|-9--------0---------|
|-9--------0---------|

Bridge
|----------------------|
|----------------------|
|----------------------|
|-X-X-X-X-X-X-X-0-0-0--|
|-X-X-X-X-X-X-X-0-0-0--|
|-X-X-X-X-X-X-X-0-0-0--|

Outro
|-----------------------------|
|-----------------------------|
|-----------------------------|
|-0------------4------2-------|
|-0-/-/-/-/-/--4-/-/--2-/-/---|
|-0------------4------2-------|

OptimusPrime

Submitted by OptimusPrime at Sun 01 Dec, 2002 9:49 am

Author: ?
Composer: ?
Publisher: ?
Language: English

Reactions

CommonCrawl [Bot]

Follow Muzikum