Emperor

Emperor
Towards The Pantheon (Guitar tab)

================================================================================
Title : Towards the Pantheon
Artist : Emperor
Album : In The Nightside Eclipse
Transcribed by : n8 scabies
Track 6 from the complete "In The Nightside Eclipse" tablature
available at: http://www.destroy.net/tabs/emperor
================================================================================

Legend
------

h = hammer-on
p = pull-off
b = bend
r = bend release
/ = slide up/down
= natural harmonic
[5] = artifical harmonic
~ = vibrato
tr = trill

g1 = guitar #1 Ishan(?), notes on top of staff
(5) = notes played only by g2 Samoth(?)
g2 = guitar #2 Samoth(?), notes on bottom of staff
trem. = tremelo picking
r# = riff #
b# = break #

Em
r1a/intro, g1 r1b
E|--------------------------------------------------------------------
B|--------------------------------------------------------------------
G|--------------0------------------0-------------0-----0-----0-----0--
D|--------2--------2--------2-----------2-----1-----1-----1-----1-----
A|-----2-----2-----------2-----2--(3)--(2)----------------------------
E|--0-----------------0-----------------------------------------------
g2 silent g2 plays (X) notes only after 1st rep. group.


r1c r1d
E--------------------------------------------------------------------||--
B--------------------------------------------------------------------||--
G-------0-----0-----0-----0-------0-----0-----0--------0-------------||--
D----4-----4-----4-----4-------3-----3-----3------3------------------||--
A------------------------------------------------(4)--(3)------------||--
E--------------------------------------------------------------------||--



r2a, g1, trem r2b, g1, trem r2a, g2
E|--------------------------------------|-----------------------------
B|--------------------------------------|--------------8--------------
G|--9--8--9----------11--10--11---------|--------9--------9--------9--
D|--9--8--9----------11--10--11---------|-----9-----9-----------9-----
A|--7--6--7-----------9---8---9---------|--7-----------------7--------
E|-----------8--7----------------10--9--|-----------------------------



r2b, g2
E|---------------------------------------------------------------------
B|-----8----------7-----7-----7-----7-------------------10-------------
G|--------9-------------------------------------11----------11---------
D|--9---------------------------------------11------11-------------11--
A|-------------6-----6-----6-----6-------9----------------------9------
E|---------------------------------------------------------------------




E|------------------------------------------------------------------||--
B|----------10-----------9-----9-----9------------------------------||--
G|--11----------11--------------------------------------------------||--
D|------11----------------------------------------------------------||--
A|--------------------8-----8-----8---------------------------------||--
E|------------------------------------------------------------------||--



r3, g1 & g2, trem. power ch.
E|------------------------------------------------------------------||--
B|------------------------------------------------------------------||--
G|------------------------------------------------------------------||--
D|--2--6--4--7--------2--6--4--8------------------------------------||--
A|--2--6--4--7--5--6--2--6--4--7------------------------------------||--
E|--0--4--2--5--------0--4--2--6------------------------------------||--


Em Em E
r4 g1, trem. r4, g2, trem. r5, g1 & g2, trem.
E|--------------|----------------||-----------------------(3)--||-----
B|--------------|----------------||-----------------------(3)--||-----
G|--------------|-----13-----11--||-----------------------(3)--||-----
D|--2--6--2--4--|--2--13--2--11--||-----------------------(3)--||-----
A|--2--6--2--4--|--2--11--2---9--||-----------2--------2-------||-----
E|--0--4--0--2--|--0------0------||--0--2--3-----0--2------3---||-----



r6. g1 & g2, trem. r7, g1 & g2
E|--------------------------||-----------------------(7)------(9)--||--
B|--------------------------||-----------------------(7)------(9)--||--
G|--------------------------||-----------------------(7)------(9)--||--
D|-----------3--2--0--2-----||--------2--------4-----(7)------(9)--||--
A|-2--3---2--------------1--||-----3--------5---------7--------9---||--
E|--------3-----------------||--5--------7--------9-------10-------||--



r8, g1 & g2, trem. r9, g1 & g2, trem.
E|-----------------------------||--------------------------------------
B|-----------------------------||--------------------------------------
G|-----------------------------||--------------------------------------
D|--2--0--2--0--3--2--0--2-----||--------------------------------------
A|--------------------------1--||-----4-----4-----4--5-----5--6-----6--
E|-----------------------------||--3-----3-----3--------5--------6-----


song: (r1a, r1b) 3X, r1c, r1d, r1c, r1a, (0:32) r2a, r2b, r2a, (1:10)
r3 2X, (1:32) r2a, r2b, r2a, r4 4X, r5 4X, r6 4X, Em arpeg, r7, r8 4X,
r9, r8 2X, r9, r2a, r2b, r2a, r3 2X, r2a, r2b, r2a

OptimusPrime

Submitted by OptimusPrime at Sun 01 Dec, 2002 9:42 am

Author: ?
Composer: ?
Publisher: ?

Reactions

CommonCrawl [Bot]

Follow Muzikum