Coal Chamber

Coal Chamber
I (Guitar tab)

WWW.METALTABS.COM
URL: www.metaltabs.com
EMAIL: webmaster@metaltabs.com

----------------------------------------------------------------------------------------------

SONG: I
BAND: Coal Chamber
ALBUM: Coal Chamber
TRANSCRIBED BY: Unknown
DATE: Unknown

----------------------------------------------------------------------------------------------

TUNING: tune down like a seven string guitar in drop d (A-E-A-D-G-B)



RIFF 1:

B|---------------------|
G|---------------------|
D|---------------------|
A|-2--3-3-5--3-3-2--3--|
E|-2--3-3-5--3-3-2--3--|
A|-2--3-3-5--3-3-2--3--|

RIFF 1A:

B|------------------|
G|------------------|
D|------------------|
A|-2-3--2--2--2-2-2-|
E|-2-3--2--2--2-2-2-|
A|-2-3--2--2--2-2-2-|
P.M..........

RIFF 2:

B|---------------------|
G|---------------------|
D|---------------------|
A|---------------------|
E|---------------------|
A|-2--3-3-5--3-3-2--3--|
P.M...................

RIFF 3:

B|-----------------------------------|
G|-----------------------------------|
D|-----------------------------------|
A|-----------------------------------|
E|-----------------------------------|
A|-3--2--2--3--2--3--2--3--2-3-5-3-2-|
P.M.................................

RIFF 4:

B|-----------------------------------|
G|-----------------------------------|
D|-----------------------------------|
A|-3--2--2--3--2--3--2--3--2-3-5-3-2-|
E|-3--2--2--3--2--3--2--3--2-3-5-3-2-|
A|-3--2--2--3--2--3--2--3--2-3-5-3-2-|

RIFF 5: (slide between notes until fades out)

B|---------------|
G|---------------|
D|---------------|
A|---------------|
E|---------------|
A|-11/10\\11/10---|


SONG ORDER:

Pick Scratches during bass
Riff 1(7 x\'s)
Riff 1A(1 x\'s)
Riff 1(7 x\'s)
Riff 1A(1 x\'s)
Riff 2(8 x\'s) Last time don\'t palm mute
Riff 1(4 x\'s)
Riff 2(8 x\'s) Last time don\'t palm mute
Riff 1(8 x\'s)
Riff 3(4 x\'s)
Riff 4(4 x\'s)
Pause
Riff 5(12 x\'s)
Riff 4(11 x\'s)

OptimusPrime

Submitted by OptimusPrime at Sun 01 Dec, 2002 9:04 am

Author: ?
Composer: ?
Publisher: ?
Language: English

Reactions

CommonCrawl [Bot]

Follow Muzikum