TNT

TNT
Caught Between The Tigers (Guitar tab)

hey and enjoy
joakim

Intro |-> Palm mute Palm mute Machinegun technique with palm mute
|-----------------------------------------------------------------------------
|-----------------------------------------------------------------------------
|-----------------------------------------------6-4-6--7-6-7--9-7-9--11-9-11--
|-ph-----------------------5-4-5--7-5-7--9-7-9--------------------------------
|-5---5-4-5--7-5-7--9-7-9-----------------------------------------------------
|-----------------------------------------------------------------------------

|---------------------------9-7-9--11-9-11--12-11-12--14-12-14--16-14-16--
|-8-7-8--10-8-10--12-10-12------------------------------------------------
|-------------------------------------------------------------------------
|-------------------------------------------------------------------------
|-------------------------------------------------------------------------
|-------------------------------------------------------------------------

OptimusPrime

Submitted by OptimusPrime at Fri 05 Nov, 2004 12:12 pm

Author: ?
Composer: ?
Publisher: ?
Language: English

Reactions

CommonCrawl [Bot]

Follow Muzikum