TNT

TNT
1000 Lovers (Guitar tab)

hey and enjoy
joakim

Eb|-----------------------|-----------------------------|
Bb|-----------------------|-----------------------------|
Gb|-----6------7-7--------|-6------6-7------------------|
Db|-----7------7-7--------|-7------7-7------------------|
Ab|-----------------------|-------------------5---------|
Eb|-0------0-0------0--0-0|----0-0--------5-7---7-6-5-3-|

|-----------------------|------------------------|
|-----------------------|------------------------|
|-----6------7-7------2-|------------------------|
|-----7------7-7------2-|------------------------|
|-----------------7\--0-|------------------------|
|-0------0-0------------|-----------3-2---5-3----|

|-----------------------|-----------------------------|
|-----------------------|-----------------------------|
|-----6------7-7--------|-6------6-7------------------|
|-----7------7-7--------|-7------7-7------------------|
|-----------------------|-------------------5---------|
|-0------0-0------0--0-0|----0-0--------5-7---7-6-5-3-|

|-----------------------|------------------------|
|-----------------------|------------------------|
|-----6------7-7------2-|------------------------|
|-----7------7-7------2-|------------------------|
|-----------------7\--0-|------------------------|
|-0------0-0------------|--------0-0-3-2-0-5-3-3-|


|-----------------------|-----------------------------|
|-----------------------|-----------------------------|
|-----6------7-7--------|-6------6-7------------------|
|-----7------7-7--------|-7------7-7------------------|
|-----------------------|-------------------5---------|
|-0------0-0------0--0-0|----0-0--------5-7---7-6-5-3-|

|-----------------------|----------------|
|-----------------------|----------------|
|-----6------7-7------2-|----------------|
|-----7------7-7------2-|----------------|
|-----------------7\--0-|----------------|
|-0------0-0------------|--3-2-0---------|


Verse (Acoustic guitar - arpeggio)
|---0-----0-----0--------------|---0-----0-----------------------------|-
|-----0-----0-----0---4--------|-----0-----0---5--4-4--(5---2nd verse)-|
|-------2-----2-----2----4---4-|-------2-------4--4-4--(ph)------------|
|--------------------------4---|---------------------------------------|
|------------------------------|---------------------------------------|
|------------------------------|---------------------------------------|

|---0-----0-----0--------------|------4-0----4-0-------5-0-------5-0-----|
|-----0-----0-----0---4--------|-----------------3---------3---------3---|
|-------2-----2-----2----4-----|-----------------------------------------|
|--------------------------4---|-----------------------------------------|
|------------------------------|-----------------------------------------|
|------------------------------|-----------------------------------------|
| |
|------------------------------|(Electric with palm mute on both strings)|
|------------------------------|-----------------------------------------|
|------------------------------|-----------------------------------------|
|------------------------------|-6-66-6-66-6-66-6-66-7-77-7-77-7777-7777-|
|------------------------------|-4-44-4-44-4-44-4-44-5-55-5-55-5555-5555-|
|------------------------------|-----------------------------------------|


Chorus
|-----------------------|------------------------|
|-----------------------|------------------------|
|------------9--9----xx-|-7--7-----xx-9--9----xx-|
|-7--7----xx-9--9----xx-|-7--7-----xx-9--9----xx-|
|-7--7----xx-7--7----xx-|-5--5-----xx-7--7----xx-|
|-5--5----xx------------|------------------------|

|-----------------------|--------------------------|
|-----------------------|--------------------------|
|------------9--9----xx-|--------------------------|
|-7-------xx-9--9----xx-|-4--4-----xx--------------|
|-7-------xx-7--7----xx-|-4--4-----xx--------------|
|-5-------xx------------|-2--2-----xx-2-4-5-4-5-4--|

|-----------------------|------------------------|
|-----------------------|------------------------|
|------------9--9----xx-|-7--7-----xx-9--9----xx-|
|-7--7----xx-9--9----xx-|-7--7-----xx-9--9----xx-|
|-7--7----xx-7--7----xx-|-5--5-----xx-7--7----xx-|
|-5--5----xx------------|------------------------|

|-----------------------|--------------------------|
|-----------------------|--------------------------|
|------------9--9-------|-7------~--------------|
|-7-------xx-9--9-------|-7----------with arm------|
|-7-------xx-7--7-------|-5------------------------|
|-5-------xx------------|----------------------/\--|
g

|-----------------------|-----------------------------|
|-----------------------|-----------------------------|
|-----6------7-7--------|-6------6-7------------------|
|-----7------7-7--------|-7------7-7------------------|
|-----------------------|-------------------5---------|
|-0------0-0------0--0-0|----0-0--------5-7---7-6-5-3-|

|-----------------------|------------------------|
|-----------------------|------------------------|
|-----6------7-7------2-|------------------------|
|-----7------7-7------2-|------------------------|
|-----------------7\--0-|--------------------2-0-|
|-0------0-0------------|-3-2-0----0-3-2-5-3-----|

Repeat verse

2nd Chorus
|-----------------------|------------------------|
|-----------------------|------------------------|
|------------9--9----xx-|-7--7-----xx-9--9----xx-|
|-7--7----xx-9--9----xx-|-7--7-----xx-9--9----xx-|
|-7--7----xx-7--7----xx-|-5--5-----xx-7--7----xx-|
|-5--5----xx------------|------------------------|

|-----------------------|--------------------------|
|-----------------------|--------------------------|
|------------9--9----xx-|--------------------------|
|-7-------xx-9--9----xx-|-4--4-----xx--------------|
|-7-------xx-7--7----xx-|-4--4-----xx-----------PH-|
|-5-------xx------------|-2--2-----xx-2-4-5-4-5-4~-|

|-----------------------|------------------------|
|-----------------------|------------------------|
|------------9--9----xx-|-7--7-----xx-9--9----xx-|
|-7--7----xx-9--9----xx-|-7--7-----xx-9--9----xx-|
|-7--7----xx-7--7----xx-|-5--5-----xx-7--7----xx-|
|-5--5----xx------------|------------------------|

|-----------------------|--------------------------|
|-----------------------|--------------------------|
|------------9--9----xx-|--------------------------|
|-7-------xx-9--9----xx-|-4--------xx-4--6---------|
|-7-------xx-7--7----xx-|-4--------xx-4--6---------|
|-5-------xx------------|-2--------xx-2--4---------|

|-----------------------|------------------------|
|-----------------------|------------------------|
|------------9--9----xx-|-7--7-----xx-9--9----xx-|
|-7--7----xx-9--9----xx-|-7--7-----xx-9--9----xx-|
|-7--7----xx-7--7----xx-|-5--5-----xx-7--7----xx-|
|-5--5----xx------------|------------------------|

|-----------------------|------------------------|
|-----------------------|------------------------|
|------------9--9----xx-|-7----------------------|
|-7--7----xx-9--9----xx-|-7----------------------|
|-7--7----xx-7--7----xx-|-5----------------------|
|-5--5----xx------------|------------------------|


With volume pedal
Guitar solo < < < <
|-24-----20------|-19-----17--------|------------------|-------------------|
|----------------|-20-----17--------|------------------|-------------------|
|----------------|------------------|-12---11----------|-9------12---------|
|----------------|------------------|-12---12----------|-9------12---------|
|----------------|------------------|------------------|-------------------|
|----------------|------------------|------------------|-------------------|

|--------------------------------------|--------------------------------------|
|-15b1/\-12h15p12----------------------|--------------------------------------|
|------------------14b1/- \--12h14p12--|--------------------------------------|
|--------------------------------------|-12h14p12-----------------------------|
|--------------------------------------|----------12-12-14-12-10-10-12-10-7~--|
|--------------------------------------|--------------------------------------|
|-> Palm mute

OptimusPrime

Submitted by OptimusPrime at Fri 05 Nov, 2004 12:10 pm

Author: ?
Composer: ?
Publisher: ?
Language: English

Reactions

CommonCrawl [Bot]

Follow Muzikum