TNT

TNT
Seven Seas (Guitar tab)

TNT-SEVEN SEAS
GUTAR-RONNI LE TEKR(�)O
TABBED BY JOAKIM F.JENSSEN

E------------------------------------------------------------------|
B------------------------------------------------------------------|
G------------------------------------------------------------------|
D------12-12--10-12-------12-10--------12----12--10-12-------12-10-|
A-8-10-10-10--8--10--8-10-10-8----8-10-10-10-10--8--10--8-10-10-12-|
E------------------------------------------------------------------|
PM.. .... .... .. ....

|---------------------------------------------------------------------------------------|
|---------------------------------------------------------------------------------------|
|---------------------------------------------------------------------------------------|
|--------------8--10-3-------------8--10-12/--10-12/----------8--10-3-------------8--10-|
|-5-3-1--5-3-1-6--8--1------0-1-5--6--8--10/--8--10/---0-1-5--6--8--1------0-1-5--6--8--|
|-----------------------3--3--------------------------3----------------3--3-------------|



THIS IS ALL I HAVE BUT I GONNA GIVE YOU THE SOLO AND THE REST LATER.

JOAKIM.

OptimusPrime

Submitted by OptimusPrime at Mon 11 Oct, 2004 12:39 pm

Author: ?
Composer: ?
Publisher: ?
Language: Norwegian

Reactions

CommonCrawl [Bot]

Follow Muzikum