The Blue Aeroplanes

The Blue Aeroplanes
Warhols Fifteen (Guitar chord)

Date: Wed, 27 May 1998 05:07:38 PDT
From: david smith
Subject: b/blue_aeroplanes/warhols_fifteen.crd

Artist: The Blue Aeroplanes
Track: Warhols Fifteen

from the Albums Tolerance
and Friendloverplane

Tuning : EADGBe

The whole song is just some picking on a 4 chord progression
repeated over and over.

A D(+e) G
e-------------0-------------0-----0------------3-----3--------
B----------2-----2-------------3-----3------------3-----3-----
G-------2-----------2-----2--------------0--0--------------0--
D----2-----------------0--------------------------------------
A-0-----------------------------------------------------------
E-------------------------------------------------------------

A
e-------------
B-------2-----
G----2-----2--
D-2-----------
A-------------
E-------------


* Chords *

A : 002220
D(+e) : x00230
G : 320033

OptimusPrime

Submitted by OptimusPrime at Sun 01 Dec, 2002 8:34 am

Author: ?
Composer: ?
Publisher: ?
Language: English

Reactions

CommonCrawl [Bot]

Follow Muzikum