Richard Blackwood

Richard Blackwood
1 2 3 4 Get With The Wicked (Bass tab)

Artist: Richard Blackwood
Song: 1,2,3,4 Get With The Wicked
Tabbed by: Dan Rowden

*** bass-tabs.co.uk - http://www.bass-tabs.co.uk ***

Intro: (no bass for first few bars)
G|--------------------------------------------|
D|--------------------------------------------|
A|--------------------------------------------|
E|-6--6---8-888---13-------6--6---8-888---13--|

Verse Riff:
G|-------------------------------------------|
D|-------------------------------------------|
A|-------------------------------------------|
E|-6----8---13------1-4-5-6----8----1----1-4-|

Chorus Riff:
G|--------------------------------------------------------|
D|--------------------------------------------------------|
A|--------------------------------------------------------|
E|-6--6---8-888---1--1--1--1----6--6---8-888---1--1--1--4-|

Middle 8: (x2)
G|------------------------------------------------|--------------|
D|-1---1-----1-1---1------------------------------|--------------|
A|---1---1-4-----1---1--4---4-4---4---------------|-1--3--4--6-8-|
E|------------------------------4---4-7-6-6-1-1-1-|--------------|


Any comments or suggestions? dan@bass-tabs.co.uk
Visit my website at http://www.bass-tabs.co.uk

OptimusPrime

Submitted by OptimusPrime at Mon 19 Nov, 2001 10:06 am

Author: ?
Composer: ?
Publisher: ?
Language: English

Reactions

CommonCrawl [Bot]

Follow Muzikum