Ritchie Blackmore

Ritchie Blackmore
Spirit Of The Sea (Guitar tab)

From: Askar Rahimberdiev [askar@tscape.dol.ru]
Sent: Sunday, December 21, 1997 7:34 PM

Song: Spirit of the Sea
Artist: R.Blackmore/C.Night

G

G Em
I took a walk along the shore
C C/B Am Fill 1
To clear my mind about the day,
D D/C D/B D/A
I saw a man I'd seen before
G C Fill 2
As I approached, he slipped away...

I knew his face from years ago,
His smile stays with me ever more
His eyes, they guide me through the haze
And bring me shelter from the storm...

CaddG D/F# Em
As I walk I can feel him,
C Am D
Always watching over me...
CaddG D/F# Em Fill 3
His voice surrounds me,
C Am D Fill 4
'My Spirit of the Sea...

He went away so long ago,
On a maiden voyage far away
A young man then I did not know,
His life was taken that same day...

And it was almost like he knew
He wouldn't see me anymore
He looked so deeply in my eyes, and said
"Wait for me along the shore..."

As I walk I can feel him,
Always watching over me...
His voice surrounds me,
'My Spirit of the Sea...

And so I come most every day,
To watch the waves rise and fall,
And as I sit here on the sand,
This ocean makes me feel so small...

But I feel my lover by my side,
And he makes me follow my own heart
We'll be together some sweet day
When that day comes we'll never part...
When that day comes we'll never part...
Wait for me along the shore...


Fill 1
Am
-|---------------------------
-|-----------0-1-0h1p0-------
-|---------2-----------2-----
-|-------2-------------------
-|-0-2-3---------------------
-|---------------------------

Fill 2
D
-|---------3p2------3-2h3p2--2------
-|-----3-------3-----------5-3------
-|---2---2-------2------------------
-|-0--------------------------------
-|----------------------------------
-|----------------------------------

Fill 3
Could't figure this out yet
-|---------------------0-2-3-2-0---2-3h5p3--2--2h3p2h3p2h3p2----
-|-------------------5------------------------------------------
-|---------------0----------------------------------------------
-|-----------2-4------------------------------------------------
-|---------2----------------------------------------------------
-|-0-2-3--------------------------------------------------------

Fill 4

-|-----------------------------------
-|-7---8---10---12-------------------
-|-7---9---11---12-------------------
-|-----------------------------------
-|-5---7---9----10-------------------
-|-----------------------------------


////////
// Askar Rahimberdiev
// askar@tscape.dol.ru
///////

OptimusPrime

Submitted by OptimusPrime at Mon 19 Nov, 2001 10:06 am

Author: ?
Composer: ?
Publisher: ?
Language: English

Reactions

CommonCrawl [Bot]

Follow Muzikum