Black Flag

Black Flag
This Is Good Ver 3 (Guitar tab)

#

Date: Wed, 6 Nov 1996 19:30:58 +0000
From: Matt Javes
Subject: TAB: This is Good by Black Flag


This is Good

Black Flag

Tune down a half step.

Riff A
e|----5-----5-----5-----5-----3-----3-----3-----3----|
B|----4-----4-----4-----4-----2-----2-----2-----2----|
G|----4-----4-----4-----4-----2-----2-----2-----2----|
D|---------------------------------------------------|
A|-66----66----66----66----44----44----44----44------|
E|-44----44----44----44----22----22----22----22------|

Riff B
e|-------------|
B|-------------|
G|-32----------|
D|----32-------|
A|-------32----|
E|----------3--|

Riff C
e|----------------|
B|----------------|
G|----------------|
D|----------------|
A|-4---3---2------|
E|-2---1---0------|

Song Structure: This is very simple. After the short bass intro
you simply repeat the following block four times
with a solo instead of vocals on the third verse.

Riff A x 3
Riff B x 3
Riff C x 1


--
Matt Javes

matt@redstart.demon.co.uk

OptimusPrime

Submitted by OptimusPrime at Thu 14 Aug, 2003 4:13 pm

Author: ?
Composer: ?
Publisher: ?
Language: English

Reactions

CommonCrawl [Bot]

Follow Muzikum