Black Flag

Black Flag
Gimme Gimme Gimme (Guitar tab)

-------------------------------------------------------------------------------
GIMME GIMME GIMME - Black Flag
-------------------------------------------------------------------------------

By: Chris Gruber donkeypuncher@punkhardcore.net

Verse
e|------------------------------|
B|------------------------------|
G|------------------------------|
D|---7/8-8-8-8-8-6--------------|
A|---7/8-8-8-8-8-6--(8x)--------|
E|---5/6-6-6-6-6-4--------------|

e|----------------------------------------------------------------------|
B|----------------------------------------------------------------------|
G|----------------------------------------------------------------------|
D|---8-8-8-8-8-8-8-8-8-8-8-8-8-8-8-8-6-6-6-6-6-6-6-6-6-6-6-6-6-6-6-6----|
A|---8-8-8-8-8-8-8-8-8-8-8-8-8-8-8-8-6-6-6-6-6-6-6-6-6-6-6-6-6-6-6-6----|
E|---6-6-6-6-6-6-6-6-6-6-6-6-6-6-6-6-4-4-4-4-4-4-4-4-4-4-4-4-4-4-4-4----|

-------------------------------------------------------------------------------

OptimusPrime

Submitted by OptimusPrime at Thu 14 Aug, 2003 4:13 pm

Author: ?
Composer: ?
Publisher: ?

Reactions

CommonCrawl [Bot]

Follow Muzikum